Oops, an error
Loading. Please wait.

Kids Bass Tab

version 1
version 1

Whole song

Interactive

by MGMT
44,354 views 12 this week
1 commentread comment
1 2 3 4 5
x 6
add to favorites
launch autoscroll
font size
0
reset
guitar tuner
Autoscroll
slow
fast
+/-
esc
set tempo
stop
Help us to improve Ultimate-Guitar.com Take our survey!
×
-------------------------------------------------------------------------------
			     SONG NAME - Band Name
-------------------------------------------------------------------------------

Tabbed By :
e-mail:

Tuning:

G|--------------------------------------------------------------------------|
D|---4---4---4---4----------------------------------------7------7-----7----|
A|--------------------5------5-----5------5-------5-------------------------|
E|-2---2---2---2---0-----0------0------0------0-------5------5------5-----5-|

G|--------------------------------------------------------------------------|
D|---2------2------2------2-------------------------------------------------|
A|--------------------------------------------------------------------------|
E|0------0------0-------0---------------------------------------------------|


| /  slide up
| \  slide down
| h  hammer-on
| p  pull-off
| ~  vibrato
| +  harmonic
| x  Mute note
===============================================================================
Suggest correction
comments
print report bad tab
1 comment total.
+3 reply
jirolico 91 Jun 01, 2010 01:29 PM

G|----------------------------
D|---2------2------2------2---
A|----------------------------
E|0------0------0-------0-----

IS ACTUALLY

G|----------------------------
D|---6------6------6------6---
A|----------------------------
E|4------4------4-------4-----

guest
You may want to rate the tab now too:
select rating
Wanna post a correction for this tab? Suggest correction