Oops, an error
Loading. Please wait.

Kids Tab

version 1
version 1
178,457 views 39 this week
7 commentsread comments
1 2 3 4 5
x 30
add to favorites
launch autoscroll
font size
0
reset
how to read this tab
guitar tuner
×
Best way to learn
"Kids"
Autoscroll
slow
fast
+/-
esc
set tempo
stop
Author
Difficulty
Band: MGMT
Song: Kids
Album: Oracular Spectacular 

Tuning: Standard - E A D G B E

e|--------------3--6-3-------------------|
B|--------3--6---------6--3--------------|
G|--3--5--------------------------5------|  
D|---------------------------------------| 
A|---------------------------------------|
E|---------------------------------------|


e|--------------3--6-3-------------------|
B|--------3--6---------6--3--------------|
G|--3--5---------------------------------|  
D|---------------------------------------| 
A|---------------------------------------|
E|---------------------------------------|


e|--------------3--6-3-------------------|
B|--------3--6---------6--3--------------|
G|--3--5--------------------------5------|  
D|---------------------------------------| 
A|---------------------------------------|
E|---------------------------------------|


e|--------------3--6-3-------------------|
B|--------3--6---------6--3--------------|
G|--3--5---------------------------------|  
D|---------------------------------------| 
A|---------------------------------------|
E|---------------------------------------|


e|--------------3--6-3-------------------|
B|--------3--6---------6--3--------------|
G|--3--5--------------------------5------|  
D|---------------------------------------| 
A|---------------------------------------|
E|---------------------------------------|


e|---------------------------------------|
B|--------3------------------------------|
G|--3--5-----5--3--5-3----3--------------|  
D|---------------------5-----------------| 
A|---------------------------------------|
E|---------------------------------------|
Suggest correction
comments
print report bad tab
7 comments total. Showing first comments.
0 reply
brokenbutalive 10 Apr 26, 2008 06:27 AM

Great, apart from the second 5 should be a 4

--------------------------2----4---2--------------
---------------2-----5----------------------------
-------2----4-------------------------------------

Other than that, absolutely spot on. Good job.

+1 reply
thedude97 146 May 02, 2008 07:41 PM

A) You're off-key. The first note is an A#, not an A
B) This should be played an octave higher
C) Read the other guy's comment.

+2 reply
tralfamadorian 10 May 16, 2008 10:33 AM

should be:

|--------------3--5-3-------------------|
|--------3--6---------6--3--------------|
|--3--5--------------------------5------|
|---------------------------------------|
|---------------------------------------|
|---------------------------------------|

guest
You may want to rate the tab now too:
select rating
Wanna post a correction for this tab? Suggest correction