Oops, an error
Loading. Please wait.

Kids Bass Tab

version 2
version 2

Whole song

Interactive

by MGMT
57,222 views 54 this week
4 commentsread comments
1 2 3 4 5
excellent!
x 16
add to favorites
launch autoscroll
font size
0
reset
guitar tuner
Autoscroll
slow
fast
+/-
esc
set tempo
stop
Help us to improve Ultimate-Guitar.com Take our survey!
×
Author
-------------------------------------------------------------------------------
			     Kids by MGMT
-------------------------------------------------------------------------------

Tabbed By: Tease
e-mail: bass113@msn.com

Tuning: Drop D

By putting bass in drop D it lets the song have a hard hitting D instead of using the 
frett of the A-string. I haven't got the order in but it's easy enough to figure out. Rate 
=)


Main riff:
G|-------------|-------------|-------------|-------------|
D|--4--4--4--4-|--0--0--0--0-|--7--7--7--7-|--6--6--6--6-|
A|-------------|-------------|-------------|-------------|
E|-4--4--4--4--|-0--0--0--0--|-7--7--7--7--|-6--6--6--6--|


Whole note section:
G|----------|----------|----------|----------|
D|----------|----------|----------|----------|
A|----------|----------|----------|----------|
E|-4--------|-0--------|-7--------|-6--------|


Different riff part:  [this is played after the main riff pattern]
G|-------------|-------------|-------------|-------------|
D|--4--4--4--4-|--0--0--0--0-|--7--7--7--7-|--7--7--7--7-|
A|-------------|-------------|-------------|-------------|
E|-4--4--4--4--|-0--0--0--0--|-7--7--7--7--|-7--7--7--7--|

G|-----------------|-----------------|-----------------|-----------------|
D|-----------------|-----------------|-----------------|-----------------|
A|-----------------|-----------------|-----------------|-----------------|
E|-0-0-0-0-0-0-0-0-|-2-2-2-2-2-2-2-2-|-4-4-4-4-4-4-4-4-|-6-6-6-6-6-6-6-6-|

G|-----------------|-----------------|-------------------------|-----------------|
D|-----------------|-----------------|-------------------------|-----------------|
A|-----------------|-----------------|-------------------------|-11--------------|
E|-7-7-7-7-7-7-7-7-|-9-9-9-9-9-9-9-9-|-12-12-12-12-12-12-12-12-|-----------------|


G|-------------|  This riff is repeated while the drums go into a
D|--7--7--7--7-|  improve-like drum beat.
A|-------------|
E|-7--7--7--7--|

[Pause]

End:
G|-------------|-------------|-------------|-------------|  x3
D|--4--4--4--4-|--0--0--0--0-|--7--7--7--7-|--6--6--6--6-|
A|-------------|-------------|-------------|-------------|
E|-4--4--4--4--|-0--0--0--0--|-7--7--7--7--|-6--6--6--6--|

G|-------------|-------------|-------------|-------------|
D|--4--4--4--4-|--0--0--0--0-|--7--7--7--7-|--7--7--7--7-|
A|-------------|-------------|-------------|-------------|
E|-4--4--4--4--|-0--0--0--0--|-7--7--7--7--|-7--7--7--7--|

G|-------------|  Hold note and done
D|-------------|
A|-------------|
E|-7-----------|
Suggest correction
comments
print report bad tab
4 comments total. Showing first comments.
+1 reply
Maddo 10 wrote on February 14 2009, 01:34 pm

thank you so much for this tab
its perfect!!!

+1 reply
drumdead10000 10 wrote on November 20 2009, 03:23 pm

its in DADG not EADG

+1 reply
Gewoonwoutje 10 wrote on October 25 2010, 09:28 am

play this in drop D and its perfect

guest
You may want to rate the tab now too:
select rating
Please do not post tabs as comments. Select "correction" instead!