Oops, an error
Loading. Please wait.

Kids Ukulele Chords

version 2
version 2

Whole song

Interactive

by MGMT
791 views 1 this week
no commentswrite comment
1 2 3 4 5
please rate
add to favorites
launch autoscroll
font size
0
reset
transpose
0
reset
display chords
guitar tuner
Tab Pro tools
  • play this tab
  • loop segment
  • change instrument
  • show fretboard
  • metronome
×
Best way to learn
"Kids"
Autoscroll
slow
fast
+/-
esc
set tempo
stop
Contributor
Difficulty
intermediate
MGMT - Kids (ukulele tabs)
==========================

Intro

|-0-----2-----4-----|-7-----9--11-9--7---4--|
|-2--2--2--2--2--2--|-4--4--9--9--9--7---0--|
|-1--1--1--1--1--1--|-4--4-----------8---1--|
|-2--2--2--2--2--2--|--------------------2--|

|-4-----------------|-2---------------------|
|-0-----------------|-4---------------------|
|-1-----------------|-4---------------------|
|-2-----------------|-4---------------------|   x3

|-0-----2-----4-----|-2-----2--0--2--0-----|
|-2--2--2--2--2--2--|-2--2--2--2--2--2-----|
|-1--1--1--1--1--1--|-1--2--2--2--2--2--2--|
|-2--2--2--2--2--2--|-2--2--2--2--2--2--2--|

|-------------------|-5-4-2-0-2-0-----------|
|-0-----------------|-------------0-2-------|
|-1-----------------|---------------1-------|
|-2-----------------|---------------2-------|   

Verse & Chords

F#m     D       A       E
2124    2220    2100    4442



(Repeat thoughout the song)
comments
We did not receive enough feedback on this tab! Please rate:
print report bad tab
1 2 3 4 5
I want to post or [tab]
guest
You may want to rate the tab now too:
select rating
Please do not post tabs as comments. Select "correction" instead!