Oops, an error
Loading. Please wait.

Kids Bass Tab

version 3
version 3

Whole song

Interactive

by MGMT
2,256 views 1 this week
no commentswrite comment
1 2 3 4 5
please rate
add to favorites
launch autoscroll
font size
0
reset
guitar tuner
Autoscroll
slow
fast
+/-
esc
set tempo
stop
Help us to improve Ultimate-Guitar.com Take our survey!
×
Author
Difficulty
novice
-------------------------------------------------------------------------------
			     Kids - MGMT
-------------------------------------------------------------------------------

Tabbed By : Me

Tuning: Standard EADG

G|-----------------------7------7-----7------7------------------------------|
D|---4---4---4---4----------------------------------7-----7------7-----7----|
A|--------------------5------5-----5------5---------------------------------|
E|-2---2---2---2--------------------------------5------5------5------5------|

G|--------------------------------------------------------------------------|
D|---6------6------6------6-------------------------------------------------|
A|--------------------------------------------------------------------------|
E|4------4------4-------4---------------------------------------------------|


| /  slide up
| \  slide down
| h  hammer-on
| p  pull-off
| ~  vibrato
| +  harmonic
| x  Mute note
===============================================================================
Suggest correction
Give kudos to tab author, rate the tab!
1 2 3 4 5
comments
print report bad tab
guest
You may want to rate the tab now too:
select rating
Wanna post a correction for this tab? Suggest correction