Oops, an error
Loading. Please wait.

Kids Tab

version 3
version 3
by MGMT
9,976 views 6 this week
no commentswrite comment
1 2 3 4 5
accurate
x 3
add to favorites
launch autoscroll
font size
0
reset
how to read this tab
guitar tuner
Autoscroll
slow
fast
+/-
esc
set tempo
stop
Help us to improve Ultimate-Guitar.com Take our survey!
×
Author
KIDS-MGMT
-----------------------------------------------------------------
Tabbed by:timo1
Email:punks_431@hotmail.com

There's already another tab of this song that is correct,I just find my version easier to play.


Tuning:Standard

INTRO
e|-----------9--12--14--16--14--12-----9~~~----------------------|
B|---10--12---------------------------------12~~-----------------|
G|---------------------------------------------------------------|
D|---------------------------------------------------------------|
A|---------------------------------------------------------------|
E|---------------------------------------------------------------|\
                                                                   x2
e|-------------9--12--14-16-14-12------9~~-----------------------|/
B|-----10--12----------------------------------------------------|
G|---------------------------------------------------------------|  
D|---------------------------------------------------------------|
A|---------------------------------------------------------------|
E|---------------------------------------------------------------|


e|-----------9--12--14--16--14--12-----9~~~----------------------|
B|---10--12---------------------------------12~~-----------------|
G|---------------------------------------------------------------|
D|---------------------------------------------------------------|
A|---------------------------------------------------------------|
E|---------------------------------------------------------------|

e|-----------9---------------------------------------------------|
B|---10--12-----12--10--12--10--7--10----------------------------|
G|---------------------------------------------------------------|
D|---------------------------------------------------------------|
A|---------------------------------------------------------------|
E|---------------------------------------------------------------|

CHORUS:
e|-----------9--12--14--16--14--12-----9~~~----------------------|
B|---10--12---------------------------------12~~-----------------|
G|---------------------------------------------------------------|
D|---------------------------------------------------------------|
A|---------------------------------------------------------------|
E|---------------------------------------------------------------|
                                                                       
e|-------------9--12--14-16-14-12------9~~-----------------------|
B|-----10--12----------------------------------------------------|
G|---------------------------------------------------------------|  
D|---------------------------------------------------------------|
A|---------------------------------------------------------------|
E|---------------------------------------------------------------|


e|-----------9--12--14--16--14--12-----9~~~----------------------|
B|---10--12---------------------------------12~~-----------------|
G|---------------------------------------------------------------|
D|---------------------------------------------------------------|
A|---------------------------------------------------------------|
E|---------------------------------------------------------------|

e|-----------9---------------------------------------------------|
B|---10--12-----12--10--12--10--7--10----------------------------|
G|---------------------------------------------------------------|
D|---------------------------------------------------------------|
A|---------------------------------------------------------------|
E|---------------------------------------------------------------|

| /  slide up
| \  slide down
| h  hammer-on
| p  pull-off
| ~  vibrato
| +  harmonic
| x  Mute note
Suggest correction
Give kudos to tab author, rate the tab!
1 2 3 4 5
comments
print report bad tab
guest
You may want to rate the tab now too:
select rating
Please do not post tabs as comments. Select "correction" instead!