Oops, an error
Loading. Please wait.

Kids Tab

version 4
version 4
by MGMT
7,526 views 1 this week
no commentswrite comment
1 2 3 4 5
please rate
add to favorites
launch autoscroll
font size
0
reset
how to read this tab
guitar tuner
Tab Pro tools
  • play this tab
  • loop segment
  • change instrument
  • show fretboard
  • metronome
×
Best way to learn
"Kids"
Autoscroll
slow
fast
+/-
esc
set tempo
stop
Contributor
Difficulty
Kids By MGMT
------------
BY Guitar Guy
You Can Work out how the Rhythm goes by listening to the song.
This is the keyboard part for guitar.

E-------------15--|-17-15-----------|-----------------|-------------------|
B-------15-18-----|-------18-15~~~--|-----------------|-------------------|
G-15-17-----------|-----------------|-17~~~-----------|-------------------|
D-----------------|-----------------|-----------------|-------------------|
A-----------------|-----------------|-----------------|-------------------|
E-----------------|-----------------|-----------------|-------------------|

E-------------15--|-17-15-----------|-----------------|-------------------|
B-------15-18-----|-------18-15~~~--|-----------------|-------------------|
G-15-17-----------|-----------------|-----------------|-------------------|
D-----------------|-----------------|-----------------|-------------------|
A-----------------|-----------------|-----------------|-------------------|
E-----------------|-----------------|-----------------|-------------------|

E-------------15--|-17-15-----------|-----------------|-------------------|
B-------15-18-----|-------18-15~~~--|-----------------|-------------------|
G-15-17-----------|-----------------|-17~~~-----------|-------------------|
D-----------------|-----------------|-----------------|-------------------|
A-----------------|-----------------|-----------------|-------------------|
E-----------------|-----------------|-----------------|-------------------|

E-------------15--|-17-15-----------|-----------------|-------------------|
B-------15-18-----|-------18-15~~~--|-----------------|-------------------|
G-15-17-----------|-----------------|-----------------|-------------------|
D-----------------|-----------------|-----------------|-------------------|
A-----------------|-----------------|-----------------|-------------------|
E-----------------|-----------------|-----------------|-------------------|

E-------------15--|-17-15-----------|-----------------|-------------------|
B-------15-18-----|-------18-15~~~--|-----------------|-------------------|
G-15-17-----------|-----------------|-17~~~-----------|-------------------|
D-----------------|-----------------|-----------------|-------------------|
A-----------------|-----------------|-----------------|-------------------|
E-----------------|-----------------|-----------------|-------------------|

E-----------------|-----------------|-----------------|-------------------|
B-------15--------|-----------------|-----------------|-------------------|
G-15-17----17-15--|-17-15----15~~~--|-----------------|-------------------|
D-----------------|-------17--------|-----------------|-------------------|
A-----------------|-----------------|-----------------|-------------------|
E-----------------|-----------------|-----------------|-------------------|


The basic chords for background music are: F#m, D, A, E

played as:
e|-------------------------------------------------------------------------|
B|-------------------------------------------------------------------------|
G|-------------------7-----------------------------------------------------|
D|---4---------------7-------------------7-------------------7-------------|
A|---4---------------5-------------------7-------------------7-------------|
E|---2-----------------------------------5-------------------4-------------|
        You were a child,        Crawling on your knees towards him,

e|-------------------------------------------------------------------------|
B|-------------------------------------------------------------------------|
G|-------------------7-----------------------------------------------------|
D|---4---------------7-------------------7-------------------7-------------|
A|---4---------------5-------------------7-------------------7-------------|
E|---2-----------------------------------5-------------------4-------------|
       Making momma so proud,              But your voice was too loud,

Gtr. 2 from intro kicks in here, play it exactly as in the intro.
e|-------------------------------------------------------------------------|
B|-------------------------------------------------------------------------|
G|-------------------7-----------------------------------------------------|
D|---4---------------7-------------------7-------------------7-------------|
A|---4---------------5-------------------7-------------------7-------------|
E|---2-----------------------------------5-------------------4-------------|
                               We like to watch you laughing,

e|-------------------------------------------------------------------------|
B|-------------------------------------------------------------------------|
G|-------------------7-----------------------------------------------------|
D|---4---------------7-------------------7-------------------7-------------|
A|---4---------------5-------------------7-------------------7-------------|
E|---2-----------------------------------5-------------------4-------------|      
insects off plants,        No time to think of consequences,

e|-------------------------------------------------------------------------|
B|-------------------------------------------------------------------------|
G|-------------------7-----------------------------------------------------|
D|---4---------------7-------------------7-------------------7-------------|
A|---4---------------5-------------------7-------------------7-------------|
E|---2-----------------------------------5-------------------4-------------|
        Control yourself,        Take only what you need from it,

e|-------------------------------------------------------------------------|
B|-------------------------------------------------------------------------|
G|-------------------7-----------------------------------------------------|
D|---4---------------7-------------------7-------------------7-------------|
A|---4---------------5-------------------7-------------------7-------------|
E|---2-----------------------------------5-------------------4-------------|
       A family of trees wanting,               To be haunted,

e|-------------------------------------------------------------------------|
B|-------------------------------------------------------------------------|
G|-------------------7-----------------------------------------------------|
D|---4---------------7-------------------7-------------------7-------------|
A|---4---------------5-------------------7-------------------7-------------|
E|---2-----------------------------------5-------------------4-------------|
        Control yourself,        Take only what you need from it,

e|-------------------------------------------------------------------------|
B|-------------------------------------------------------------------------|
G|-------------------7-----------------------------------------------------|
D|---4---------------7-------------------7-------------------7-------------|
A|---4---------------5-------------------7-------------------7-------------|
E|---2-----------------------------------5-------------------4-------------|
       A family of trees wanting,               To be haunted,


e|-------------------------------------------------------------------------|
B|-------------------------------------------------------------------------|
G|-------------------7-----------------------------------------------------|
D|---4---------------7-------------------7-------------------7-------------|
A|---4---------------5-------------------7-------------------7-------------|
E|---2-----------------------------------5-------------------4-------------|
        The water is warm,        But its sending me shivers,

e|-------------------------------------------------------------------------|
B|-------------------------------------------------------------------------|
G|-------------------7-----------------------------------------------------|
D|---4---------------7-------------------7-------------------7-------------|
A|---4---------------5-------------------7-------------------7-------------|
E|---2-----------------------------------5-------------------4-------------|
       A baby is born,                  Crying out for attention,


e|-------------------------------------------------------------------------|
B|-------------------------------------------------------------------------|
G|-------------------7-----------------------------------------------------|
D|---4---------------7-------------------7-------------------7-------------|
A|---4---------------5-------------------7-------------------7-------------|
E|---2-----------------------------------5-------------------4-------------|
       Memories fade         Like looking through a fog mirror,

e|-------------------------------------------------------------------------|
B|-------------------------------------------------------------------------|
G|-------------------7-----------------------------------------------------|
D|---4---------------7-------------------7-------------------7-------------|
A|---4---------------5-------------------7-------------------7-------------|
E|---2-----------------------------------5-------------------4-------------|

This is played throughout the entire song except for in the solo.



comments
We did not receive enough feedback on this tab! Please rate:
print report bad tab
1 2 3 4 5
I want to post or [tab]
guest
You may want to rate the tab now too:
select rating
Please do not post tabs as comments. Select "correction" instead!