Oops, an error
Loading. Please wait.

Metanoia Part 2 Chords

by MGMT
5,729 views 18 this week
4 commentsread comments
1 2 3 4 5
excellent!
x 5
add to favorites
launch autoscroll
font size
0
reset
transpose
0
reset
display chords
guitar tuner
Autoscroll
slow
fast
+/-
esc
set tempo
stop
Help us to improve Ultimate-Guitar.com Take our survey!
×
Author
The other tab has the first half, so I'll post the second half.
I'm pretty sure I got it right.

Instrumental slide solo progression:

(I incorporated the bass as well, figure out
the strumming pattern)

   C#  F# F# Fm              Em           G       F#             Fm  F# G#
e|-----2--2--1---------------0-2-3-0------3-----5-2--5-4-3-2-2---1---2--4-------|
B|-6---2--2--1---------------0-----0------0-------2----------2---1---2--4-------|
G|-6---3--3--1---------------0-----0------0-------3----------3---1---3--5-------|
D|-6---4--4--3----3-5-6-5-3--2-----2------0-------4----------4---3---4--6-------|
A|-4---4--4--3--3------------2-----2------2-------4----------4---3---4--6-------|
E|-----2--2--1---------------0-2-3-0--0-2-3-3-3-5-2--5-4-3-2-2---1---2--4-------|

Repeat this a lot until the next part...


F              G
Tonight, under rose
F                      G
You won't find another wheel to roll
F                   G
When autumn winds appear
              F
We wear these fears on our right
         G
It just wants to be surreal 'cause
F               G
All dressed in diamond image jeans
F                      G
Mercury's found in old field
                 F
We miserable in love
                 G
And chance we walked
          F            G
Right on in, into the streets of the city but
Am                  G
Watching people disappear
        F
Without reaching out
Am
Years and years
       G             F
You're left by yourself
G        C
On the wheel

The instrumental outro is all major chord changes:

    F   G   A   D   A#   A#   D   E
e|--1---3---5---5---6----6---------------------------------------------------|
B|--1---3---5---7---6----6----7---9------------------------------------------|
G|--2---4---6---7---7----7----7---9------------------------------------------|
D|--3---5---7---7---8----8----7---9------------------------------------------|
A|--3---5---7---5---8----8----5---7------------------------------------------|
E|--1---3---5-------6----6---------------------------------------------------|

This is what Ben plays over these:

(Dreamy video game sequence)

The chords in parenthesis represent the background chords to
each sequence. The song just repeats this and fades out.

  (F)           (G)          (A)          (D)        (A#)
e|-13-12-10------13-12--------------9-10--------9-10--18-15------------------|
B|----------13--------12-13---10-12--------8-10------------17----------------|
G|------------------------------------------------------------18-15----------|
D|---------------------------------------------------------------------------|
A|---------------------------------------------------------------------------|
E|---------------------------------------------------------------------------|

   (A#)                  (D)                      (E)*
e|--18-15--15--18-15--15-----------------------------------------------------|
B|-------17---------17-----15--14-15--14----------------14-17----------------|
G|----------------------------------16--14-16-12------14---------------------|
D|--------------------------------------------------17-----------------------|
A|---------------------------------------------------------------------------|
E|---------------------------------------------------------------------------| 
                                      *Play the (E) sequence 4 times quickly
Repeat until the end.
Suggest correction
comments
print report bad tab
4 comments total. Showing first comments.
+1 reply
nadroJ22 170 wrote on May 26 2009, 07:14 pm

Sorry, should have included this...

Outro:

The chords in parenthesis represent the background chords to
each pattern. The song just repeats this and fades out.

(F) (G) (A) (D) (F#)
e|-13-12-10------13-12--------------9-10--------9-10--16-13------------------|
B|----------13--------12-13---10-12--------8-10------------15----------------|
G|------------------------------------------------------------16-13----------|
D|---------------------------------------------------------------------------|
A|---------------------------------------------------------------------------|
E|---------------------------------------------------------------------------|

(F#) (D) (E)
e|--16-13--13--16-13--13-----------------------------------------------------|
B|-------15---------15-----15--14-15--14----------------14-17----------------|
G|----------------------------------16--14-16-12------14---------------------|
D|--------------------------------------------------17-----------------------|
A|---------------------------------------------------------------------------|
E|---------------------------------------------------------------------------|

0 reply
stef_veenhof 83 wrote on June 17 2009, 12:53 pm

Thanks for the comment on the other tab.

This looks very good, and sounds good when i play it next to the song!

Proper tab.

0 reply
crazy8rgood 69 wrote on September 12 2009, 06:52 pm

Great tab for a ****ing amazing song.

guest
You may want to rate the tab now too:
select rating
Please do not post tabs as comments. Select "correction" instead!