Oops, an error
Loading. Please wait.

Of Moons Birds And Monsters Bass Tab

version 1
version 1

Whole song

Interactive

by MGMT
8,253 views 15 this week
no commentswrite comment
1 2 3 4 5
please rate
add to favorites
launch autoscroll
font size
0
reset
guitar tuner
Autoscroll
slow
fast
+/-
esc
set tempo
stop
Help us to improve Ultimate-Guitar.com Take our survey!
×
Author
Difficulty
intermediate
-----------------------------------------------------------------------------
			     Of Moons, Birds & Monsters - MGMT
-----------------------------------------------------------------------------

Tabbed By :Joel B
Tuning: Standard

This one of my favourite songs of Mgmt's Oracular Spectacular.
I think i'ts not perfect and i'd do mistakes, but it sounds good to me.
So please be kind and comment and correct them.
And don't forget to rate. Much fun ;)

Verse:
G|----------------------1--1-1-------------|
D|-------------2-2--4-2-------4-2----2h4-4-|
A|-4--4--4-2-4-------------------4-2-------|
E|-----------------------------------------|

G|---------------------------------------|--------|
D|-------------2-2--4-2-------2-1--------|--------|
A|-4--4--4-2-4-------------------2-4-2-2-|-----2-2|
E|---------------------4--4-4------------|-5-5----|

G|----------------------1--1-1-------------|
D|-------------2-2--4-2-------4-2----2h4-4-|
A|-4--4--4-2-4-------------------4-2-------|
E|-----------------------------------------|

G|---------------------------------------|--------|
D|-------------2-2--4-2-------2-1--------|--------|
A|-4--4--4-2-4-------------------2-4-2-2-|-----2-2|
E|---------------------4--4-4------------|-5-5----|

Pre Chorus:
G|---------------------------------|
D|---------------------------------|
A|---------------------------------|x2
E|-5-5-5-5-5-5-5-5-5-5-5-5-5-5-5-5-|

Chorus:
G|----------------------1--1-1-------------|
D|-------------2-2--4-2-------4-2----2h4-4-|
A|-4--4--4-2-4-------------------4-2-------|
E|-----------------------------------------|

G|---------------------------------------|--------|
D|-------------2-2--4-2-------2-1--------|--------|
A|-4--4--4-2-4-------------------2-4-2-2-|-----2-2|
E|---------------------4--4-4------------|-5-5----|

G|----------------------1--1-1-------------|
D|-------------2-2--4-2-------4-2----2h4-4-|
A|-4--4--4-2-4-------------------4-2-------|
E|-----------------------------------------|

G|---------------------------------------|--------|
D|-------------2-2--4-2-------2-1--------|--------|
A|-4--4--4-2-4-------------------2-4-2-2-|-----2-2|
E|---------------------4--4-4------------|-5-5----|

Chorus end:
G|--------------------------------------------------------|
D|------7-------------------------7-----7---------------6-|
A|--------------------------------------------------------|
E|-5--5---5--5-5--7-7--7-7-7-5--5---5-5---7-7-7-7-7-7-9\--|
                       . . .              . . . . . .   .
Solo:
G|---------------------------------------6---|
D|-------------2-x---4-2-------2-1-----------|
A|-4--4--4-2-4--------------------2-4--4----4|
E|----------------------4--4-4---------------|

G|---------------------1--1-1------------|--------|
D|-------------2-x-2-x--------4-2--------|------4-|
A|-4--4--4-2-4-------------------2-4-2-2-|-----2-2|
E|---------------------------------------|-5-5----|

G|----------------------1--1-1----------6--|
D|-------------2-2--4-2-------4-2----------|
A|-4--4--4-2-4-------------------4-2--4---4|
E|-----------------------------------------|

G|---------------------------------------|--------|
D|-------------2-2--4-2-------2-1--------|--------|
A|-4--4--4-2-4-------------------2-4-2-2-|-----2-2|
E|----------------------4--4-------------|-5-5----|

G|------------------------------------------------|
D|------------------------------------------------|
A|---------------------------------1-1-1-1-1-1-1-1|
E|-4-4-4-4-4-4-4-4-5-5-5-5-5-5-5-5----------------|

G|-------|
D|-------|
A|-2-----|
E|-------|

G|------------------|
D|------------------|
A|------------------|
E|-5--------4-------|

G|-------------------------|
D|-------------------------|
A|-4-4-4-4---------0-0-0-0-|
E|---------2-2-2-2---------|

G|------------------------------------------------|
D|------------------------------------------------|
A|---------------------------------1-1-1-1-1-1-1-1|
E|-4-4-4-4-4-4-4-4-5-5-5-5-5-5-5-5----------------|

G|2--1---------------------------------------|
D|------42-1---------------------------------|
A|-----------4----0--------------------------|
E|----------------------2----4---------------|

G|------------2------------------------------|
D|-------------------------------------------|
A|-0-----------------------------------------|
E|--------------2-------4--------------------|

G|--------2---1-------------------------------|
D|--------------------4-------------------6---|
A|-0---0----0---------------------------------|
E|--------------2-------4---------------------|

G|-------------2-------1----------------------|
D|------------------------------------6-4-----|
A|-0----0---------------------------------7-6-|
E|--------------2-------4---------------------|

G|--------------------------------------------|
D|-----------------------------6--------------|
A|-0------------------------------------------|
E|-------------2--------4---------4--4-4--4---|


The rest is something like this with octaves and other rythms, I don't figure it out, 
improve ;)
G|-------------------------------------|
D|-------------------------------------|
A|-0--0--0--0--------------------------|
E|-------------2--2--2--2--4--4--4--4--|


| /  slide up
| \  slide down
| h  hammer-on
| p  pull-off
| ~  vibrato
| +  harmonic
| x  Mute note
=============================================================================
Suggest correction
Give kudos to tab author, rate the tab!
1 2 3 4 5
comments
print report bad tab
guest
You may want to rate the tab now too:
select rating
Please do not post tabs as comments. Select "correction" instead!