Oops, an error
Loading. Please wait.

Of Moons Birds And Monsters Tab

version 2
version 2

Whole song

Interactive

by MGMT
16,578 views 39 this week
2 commentsread comments
1 2 3 4 5
excellent!
x 7
add to favorites
launch autoscroll
font size
0
reset
how to read this tab
guitar tuner
Tab Pro tools
  • play this tab
  • loop segment
  • change instrument
  • show fretboard
  • metronome
Autoscroll
slow
fast
+/-
esc
set tempo
stop
Contributor
___________________________________
                                   |
Artist: MGMT                       |
Song  : Of Moons, Birds & Monsters |
Album : Oracular Specular          |
___________________________________|


hey, i wanted to tab the solo part in the end because the posted ones are pretty incomplete.


i'll put "~" as a sign to hold the note. it's not supposed to be the vibrato type of 
length indicates a little about the holding time.

i also added the time over the tab lines for better orientation.


so here we go...


starts at
  2:44
e|------------------------------------------|
B|----------------17-17-16-14-12------------|
G|13-11-13-11-9~-----------------13~~--13~~-|
D|------------------------------------------|
A|------------------------------------------|
E|------------------------------------------|

  2:54
e|------------------------------------------|
B|----------------17-17-16-14-12------------|
G|13-11-13-11-9~-----------------13~~--13~~-|
D|------------------------------------------|
A|------------------------------------------|
E|------------------------------------------|

  3:04
e|---------------------------------------------|
B|----------------17-17-16-14-12---------------|
G|13-11-13-11-9~-----------------13~~--14-13~~-|
D|---------------------------------------------|
A|---------------------------------------------|
E|---------------------------------------------|

  3:14
e|-----------------------------------------------|
B|----------------17-17-16-14-12-----------------|
G|13-11-13-11-9~-----------------13~~-13-14-13~~-|
D|-----------------------------------------------|
A|-----------------------------------------------|
E|-----------------------------------------------|

          3:26
e|----------------------------------|
B|12-14~--17-17-16-14-12------------|
G|-----------------------13~~--13~~-|
D|----------------------------------|
A|----------------------------------|
E|----------------------------------|

  3:33
e|------------------------------------------|
B|----------------17-17-16-14-12------------|
G|13-11-13-11-9~-----------------13~~--13~~-|
D|------------------------------------------|
A|------------------------------------------|
E|------------------------------------------|

  3:42
e|--------------------------------------|
B|-------------------14~-16~------------|
G|13-13-11-13-11-9~----------13~~--13~~-|
D|--------------------------------------|
A|--------------------------------------|
E|--------------------------------------|

  3:52
e|--------------------------|
B|12-14~~-16~~-14-----------|
G|----------------13~~-13~~-|
D|--------------------------|
A|--------------------------|
E|--------------------------|

  4:02
e|--------------------------------|
B|14~~--17-17-16-14-12------------|
G|---------------------13~~--13~~-|
D|--------------------------------|
A|--------------------------------|
E|--------------------------------|

  4:12
e|-----------------------------------------------|
B|----------------17-17-16-14-12-----------------|
G|13-11-13-11-9~-----------------13~~-13b14r13~~-|
D|-----------------------------------------------|
A|-----------------------------------------------|
E|-----------------------------------------------|

  4:21                                     4:31
e|-------------------------------------------------------|
B|----------------14-14-16-17-16-------------------------|
G|13-11-13-11-9~-----------------14-13~~---13\11-11-9~~~-|
D|-------------------------------------------------------|
A|-------------------------------------------------------|
E|-------------------------------------------------------|
comments
print report bad tab
2 comments total.
0 reply
qotsa5721 wrote on April 22 2009, 02:18 pm

so nice!
cheers

0 reply
badseed333 wrote on July 6 2011, 05:28 am

where's the solo? this is the outro thang

I want to post or [tab]
guest
You may want to rate the tab now too:
select rating
Please do not post tabs as comments. Select "correction" instead!