Oops, an error
Loading. Please wait.

Of Moons Birds And Monsters Bass Tab

version 2
version 2

Whole song

Interactive

by MGMT
1,191 views 12 this week
no commentswrite comment
1 2 3 4 5
please rate
add to favorites
launch autoscroll
font size
0
reset
guitar tuner
Autoscroll
slow
fast
+/-
esc
set tempo
stop
Help us to improve Ultimate-Guitar.com Take our survey!
×
Author
Difficulty
intermediate
Of Moons, Birds and Monsters. Bass tab.
Key;
x=Mute note
s= Slap
p=Pop
r=Ring
c=continuous

Bass comes in at 0:09
First verse:x2


G|---------------------------------------------|
D|---------------------------------------------|
A|-------------7-7-9-7---11-11-9-7-------------|
E|--9-9-9-7-9-----------------------9-7-7-7-7-7|

G|-------------------------------------------------------|
D|-------------------------------------------------------|
A|-------------7-7-9-7---11-11-9-7-----------------------|
E|--9-9-9-7-9-----------------------9-7-7-7-7-7-5555-7777|

Prechorus-
G|---------------------------------------------|
D|---------------------------------------------|
A|---------------------------------------------|
E|-5c------------------------------------------|

Chorusx2
G|----------------------------------------|
D|-----------2-2-4-2-6-6-4-2--------------|
A|-4-4-4-2-4-----------------4-2-2-2-2----|
E|----------------------------------------|

G|----------------------------------------------|
D|-----------2-2-4-2-6-6-4-2--------------------|
A|-4-4-4-2-4-----------------4-2-2-2-2----------|
E|-------------------------------------555-777--|

Bridge (Drown like a rat)
G|--------------------------------------------------------|
D|-------7-------7-------9-------7-------7----------------|
A|--------------------------------------------------------|
E|-5-5-x---5-5-x---7-7-x---5-5-x---5-5-x----777777-9------|
   s s   p s s   p s s   p s s   p s s   p  ssssss s

1:36
X2
G|---------------------------------------------|
D|---------------------------------------------|
A|-------------7-7-9-7---11-11-9-7-------------|
E|--9-9-9-7-9-----------------------9-7-7-7-7-7|

G|-------------------------------------------------------|
D|-------------------------------------------------------|
A|-------------7-7-9-7---11-11-9-7-----------------------|
E|--9-9-9-7-9-----------------------9-7-7-7-7-7-5555-7777|
Pre outro (To catch a monster)
G|---------------------------------------------|
D|---------------------------------------------|
A|---------------------------------------------|
E|-44444444-55555555-6666666-5--555555-4444444-|

G|------------------------------------------------|
D|------------------------------------------------|
A|-4-4-4------------------------------------------|
E|-------3-3-3-5-5-5----4444444-5555555-6666666-5r|

Outro: 2:29
G|----------------------|
D|----------------------|
A|----------------------|
E|-2-4r----5r-5-2-4-----|

2:45
G|------------------|
D|-----7------4-----|
A|------------------|
E|-5-5---5--2---2-4r|

G|------------------------|
D|-------4-------6-4------|
A|-------------------6-4--|
E|-5-5--2-234r------------|

Riff until 4:31
G|----------------|
D|-----7-7--------|
A|----------------|
E|-5-5--5—5-2-234r|

G|---------------------------------------------|
D|---------------------------------------------|
A|---------------------------------------------|
E|-5r------------------------------------------|
Suggest correction
Give kudos to tab author, rate the tab!
1 2 3 4 5
comments
print report bad tab
guest
You may want to rate the tab now too:
select rating
Wanna post a correction for this tab? Suggest correction