Oops, an error
Loading. Please wait.

Pieces Of What Chords

version 1
version 1

Whole song

Interactive

by MGMT
231,491 views 135 this week
12 commentsread comments
1 2 3 4 5
x 60
add to favorites
launch autoscroll
font size
0
reset
transpose
0
reset
display chords
guitar tuner
Autoscroll
slow
fast
+/-
esc
set tempo
stop
Help us to improve Ultimate-Guitar.com Take our survey!
×
Author
Difficulty
novice
Cheecks Strikes again for your chordie enjoyment!

Chordies
G,D,Em,C

[Verse]
G                       D
when the world has turned
Em
paralyzed and wrong
G                         D      Em        
cold blooded claws never offered anything at all
G                 D 
past the point of love
Em
shattered and untied
G                      D
waiting to pick up the pieces
Em
that make it all alright
C
but pieces of what
Em
pieces of what
G
pieces of what
D                  C     G
doesn't matter any more
Suggest correction
comments
print report bad tab
12 comments total. Showing first comments.
+5 reply
eatmoremusic 10 May 26, 2008 08:20 AM

Hey, good tab once you just play around with the chords a bit more.
And I think I got that part at the end when the synth comes in and plays the main riff before the last strumming of the chords:

Try with capo on 3

e---3-3---0---3---0~~
b--------------------
g--------------------
d--------------------
a--------------------
e--------------------


e--3-3---0--5-3-0---------0~~----
b-----------------------3---0~~--
g--------------------------------
d--------------------------------
a--------------------------------
e--------------------------------


e----------------------------
b----0-0-0-3~~---0--3--5--0--
g---------------------------0~~
d----------------------------
a----------------------------
e----------------------------

0 reply
macca223 70 Jan 12, 2009 02:05 PM

Hey thanks a lot for the tab great fun to play, thanks to eatmoremusic too for the previous comment too :)

+5 reply
canada9393 10 Nov 26, 2009 08:54 PM

I was playing around with it and found a way to incorporate the bass into the ending chord progression for people playing it solo:

D C G
doesn't matter any more

On the C, transition to G with:



e|--0----0----0-----0--0-----3---------|
B|--1----1----1-----0--0-----0---------|
G|--0----0----0-----0--0-----0---------|
D|--2----2----2-----2--0-----0---------|
A|--3----3----3-----3--3-----2---------|
E|---------------------------3---------|



Also, for those of you confused about the rest of the song, I've written it out:

G D
when the world has turned

paralyzed and wrong

G D Em
cold blooded claws never offered anything at all

G D
past the point of love

shattered and untied

G D
waiting to pick up the pieces

that make it all alright

but pieces of what

pieces of what

pieces of what

D C G
doesn't matter any more

G D
moonlight on my floor

shining through the roof

G D Em
they got the city surrounded as if I needed proof

G D
I forgot my fear

I feel it's on the rise

G D
buried by all of the pieces

falling from the sky

but pieces of what

pieces of what

pieces of what

D C G
we used to call home

pieces of what

D C G
we used to call home

G D
lay my dragon's teeth

and shallow water steel

G D
at the Belgian gates

I'm waiting for my meal

G D C G

guest
You may want to rate the tab now too:
select rating
Wanna post a correction for this tab? Suggest correction