Oops, an error
Loading. Please wait.

Pieces Of What bass

version 2
version 2

Whole song

Interactive

by MGMT
2,181 views 12 this week
no commentswrite comment
1 2 3 4 5
1 last vote to show rating
add to favorites
×
Save as Personal and add changes to this tab that will be seen only by you. Learn more ›
×
You can save this tab as Personal to edit and correct it or add notes. All changes will be seen only by you. Learn more »
launch autoscroll
font size
0
reset
guitar tuner
edit
Autoscroll
slow
fast
+/-
esc
set tempo
stop
Difficulty
intermediate
1st Chorus (0:33-0:49)
G|-9-12---9-----------------------------------------------------------------|
D|----------12-10---12-13-14---12-9-------------9h1012----9-10---10-9-------|
A|---------------------------------12-------10-----------------------12-10--|
E|-----------------------------------12---14--------------------------------|
verse part 1 (0:51-1:08)
G|----------------------------------------------------------------------------------------------|
D|---------9-10-12----9-12-13-14---12--9-------------9-12-12---9-12-13-14---12-9----------------|
A|----10--------------------------------12-10---10--------------------------------------------10|
E|-12-----------------------------------------12---------------------------------12---12-12-14--|
verse part 2 (1:09-1:24)
G|-12-9----------------------------------------------9-----------------------------------------|
D|------12---9-12-13-14---12-9------------------9-10---12---9----------------------------------|
A|----------------------------------------10-10---------------12-10-------------------------10-|
E|-----------------------------12--12--14---------------------------12--12-12---12-12-12-14----|
chorus 2 (1:25-1:40)
G|----12-9--9--9-12-9-14-12-9------------------------------------------------------|
D|-10-------------------------12-9-----------------------9h1012---9-10--10-9-------|
A|---------------------------------12----------------10----------------------12-10-|
E|------------------------------------12---12-12--14-------------------------------|

i have to sleep so you'll have to figure the last part of the song, i know it is 100% right.

            
            
Suggest correction
Creating personal tab
Creating personal tab
You can edit any tab online and save it as your Personal.

You can edit, replace or remove any tab part or add personal notes – all changes will be seen only by you.

Personal tabs can be accessed anytime from any device, even offline.
Learn more »
Give kudos to tab author, rate the tab!
1 2 3 4 5
comments
print report bad tab
guest
Wanna post a correction for this tab? Suggest correction