Oops, an error
Loading. Please wait.

Song For Dan Treacy Tab

by MGMT
5,941 views 1 this week
no commentswrite comment
1 2 3 4 5
worth learning
x 6
add to favorites
launch autoscroll
font size
0
reset
how to read this tab
guitar tuner
Tab Pro tools
  • play this tab
  • loop segment
  • change instrument
  • show fretboard
  • metronome
×
Best way to learn
"Song For Dan Treacy"
Autoscroll
slow
fast
+/-
esc
set tempo
stop
Contributor
Difficulty
novice
-------------------------------------------------------------------------------
                             Song For Dan Treacy - MGMT
-------------------------------------------------------------------------------
Tabbed by: Yam Rabinowitz
Email: yamski_b@yahoo.com

Tuning: Standard
D              Bm
He spends his time
         GM         
or maybe half of his time
    A
or part of the time wandering
            A                 Bm               Em
'round the creeks and cobble stones of hackney lanes
*There's a small sequence I added here.
-strum the Em chord and then..
e|--0---0--0--0----------------------------------------------------|
B|--0---3--2--0----------------------------------------------------|
G|--0---0--0--0----------------------------------------------------|
D|--2---2--2--2----------------------------------------------------|
A|--2---2--2--2----------------------------------------------------|
E|--0---0--0--0----------------------------------------------------|
  D                Bm
with a tear in his eye
        Gm                      A
as the children walk by, he's thinking of a song
        D        Bm                  Em
then stops to paint a picture of a frown
F#        F
walking around

     EM             G     F#m   F#
e|--0-2-3-2-0-2-----3--3---2----2----------------------------------|
B|--0-0-0-0-3-0-----3--3---2----2----------------------------------|
G|--0-0-0-0-0-0-----0--2---2----3----------------------------------|  X2
D|--2-2-2-2-2-2-----0--0---4----4----------------------------------|
A|--2-2-2-2-2-2-----2--2---4----4----------------------------------|
E|------------------3--3---2----2----------------------------------|

e|--7--6--5--4-----------7-----------------------------------------------|
B|--9--8--7--6-----------9-----------------------------------------------|
G|--9--8--7--6-----------9-----------------------------------------------|
D|--9--8--7--6---x3------9-----------------------------------------------|
A|--7--6--5--4-----------7-----------------------------------------------|
E|--7--6--5--4-----------7-----------------------------------------------|

and it goes on.

I'll tab the rest of it someday. Enjoy! Yam.
comments
print report bad tab
I want to post or [tab]
guest
You may want to rate the tab now too:
select rating
Please do not post tabs as comments. Select "correction" instead!