Oops, an error
Loading. Please wait.

Weekend Wars bass

version 1
version 1

Whole song

Interactive

by MGMT
1,365 views 1 this week
no commentswrite comment
1 2 3 4 5
x 3
add to favorites
×
Save as Personal and add changes to this tab that will be seen only by you. Learn more ›
×
You can save this tab as Personal to edit and correct it or add notes. All changes will be seen only by you. Learn more »
launch autoscroll
font size
0
reset
guitar tuner
backing track
0:00
0:00
edit
Autoscroll
slow
fast
+/-
esc
set tempo
stop
Author
Difficulty
                                    Weekend Wars                                     


                                                                                 MGMT
Piste 2



     W                   W                   W                   W                 
G||-------------------|-------------------|-------------------|-------------------|
D||-------------------|-------------------|-------------------|-------------------|
A||--5----------------|--5----------------|--3----------------|-------------------|
E||-------------------|-------------------|-------------------|--3----------------|


  W                   W                   H        H           H        H         
-------------------|-------------------|--------------------|--------------------|
-------------------|-------------------|-----------3--------|-----------3--------|
--3----------------|-------------------|--------------------|--------------------|
-------------------|--3----------------|--1-----------------|--1-----------------|


  W                   W                   H        H           H        H         
-------------------|-------------------|--------------------|--------------------|
-------------------|-------------------|-----------3--------|-----------3--------|
--5----------------|-------------------|--------------------|--------------------|
-------------------|--3----------------|--1-----------------|--1-----------------|


  W                   W                   H        H           H        H         
-------------------|-------------------|--------------------|--------------------|
-------------------|-------------------|-----------3--------|-----------3--------|
-------------------|-------------------|--------------------|--------------------|
--5----------------|--5----------------|--1-----------------|--1-----------------|


  W                   W                   W                   W                 
-------------------|-------------------|-------------------|-------------------|
-------------------|-------------------|-------------------|-------------------|
--5----------------|--5----------------|--3----------------|-------------------|
-------------------|-------------------|-------------------|--3----------------|


  W                   W                   H        H           H        H         
-------------------|-------------------|--------------------|--------------------|
-------------------|-------------------|-----------3--------|-----------3--------|
--3----------------|-------------------|--------------------|--------------------|
-------------------|--3----------------|--1-----------------|--1-----------------|


  W                   W                   H        H           H        H         
-------------------|-------------------|--------------------|--------------------|
-------------------|-------------------|-----------3--------|-----------3--------|
--5----------------|--3----------------|--------------------|--------------------|
-------------------|-------------------|--1-----------------|--1-----------------|


  W                   W                   W                   Q    Q    Q    Q     
-------------------|-------------------|-------------------|----------------------|
-------------------|-------------------|-------------------|--3----2----3---------|
-------------------|-------------------|-------------------|----------------------|
--5----------------|--5----------------|--1----------------|----------------------|


  Q    Q    Q    Q       H        H           H        H         
----------------------|--------------------|--------------------|
--3----2----3----2----|--------------------|--------------------|
----------------------|--4--------5--------|--7--------8--------|
----------------------|--------------------|--------------------|


  Q    Q    Q    Q       Q    Q    Q    Q       W                 
----------------------|----------------------|-------------------|
--7----7---------7----|--8---------8----L----|--L----------------|
------------7---------|-------8--------------|-------------------|
----------------------|----------------------|-------------------|


  H        H           H        H           H        Q    Q       W                 
--------------------|--------------------|---------------------|-------------------|
--------------------|--------------------|--7-------------7----|--8----------------|
--4--------5--------|--7--------8--------|-----------7---------|-------------------|
--------------------|--------------------|---------------------|-------------------|


  W                   H        H           H        H            H.            Q     
-------------------|--------------------|--------------------|----------------------|
--L----------------|--------------------|--------------------|----------------------|
-------------------|--4--------5--------|--7--------8--------|--10------------12----|
-------------------|--------------------|--------------------|----------------------|


  H        H            Q     Q     Q     Q       Q    Q    Q    Q     
--------------------|--------------------------|----------------------|
--8--------9--------|--10----10----10----10----|--8----8----8----8----|
--------------------|--------------------------|----------------------|
--------------------|--------------------------|----------------------|


  Q    Q    Q    Q        Q     Q     Q     Q       Q    Q    Q    Q     
----------------------|--------------------------|----------------------|
--7----7----7----7----|--11----11----11----11----|----------------------|
----------------------|--------------------------|--5----5----5----5----|
----------------------|--------------------------|----------------------|


  Q    Q    Q    Q       Q    Q    Q    Q       Q    Q    Q    Q     
----------------------|----------------------|----------------------|
----------------------|----------------------|--5----5----5----5----|
--5----5----5----5----|--3----3----3----3----|----------------------|
----------------------|----------------------|----------------------|


  Q    Q    Q    Q       Q    Q    Q    Q       Q    Q    Q    Q     
----------------------|----------------------|----------------------|
----------------------|--5----5----5----5----|----------------------|
--3----3----3----3----|----------------------|----------------------|
----------------------|----------------------|--1----1----1----1----|


  Q    E  Q    E  Q       Q    Q    Q    Q       Q    Q    Q    Q     
-----------------------|----------------------|----------------------|
----------3----3-------|----------------------|----------------------|
-----------------------|--5----5----5----5----|--3----3----3----3----|
--1----1----------1----|----------------------|----------------------|


  Q    Q    Q    Q       Q    Q    E  S S S S E     Q    Q    Q    Q     
----------------------|--------------------------|----------------------|
----------------------|--------------------------|----------------------|
----------------------|--------------------------|----------------------|
--1----1----1----1----|--1----1----1----1-1-3-5--|--5----5----5----5----|


  Q    Q    Q    Q       Q    Q    Q    Q       Q    Q    E  S S E.  S  
----------------------|----------------------|-------------------------|
----------------------|----------------------|-----------------2-------|
----------------------|----------------------|-------------------3---4-|
--5----5----5----5----|--1----1----1----1----|--1----1----1------------|


  Q    Q    Q    Q       Q    Q    Q    Q       Q    Q    Q    Q     
----------------------|----------------------|----------------------|
----------------------|----------------------|----------------------|
--5----5----5----5----|--5----5----5----5----|--3----3----3----3----|
----------------------|----------------------|----------------------|


  Q    Q    Q    Q       Q    Q    Q    Q       Q    Q    Q    Q     
----------------------|----------------------|----------------------|
--5----5----5----5----|----------------------|--5----5----5----5----|
----------------------|--3----3----3----3----|----------------------|
----------------------|----------------------|----------------------|


  Q    Q    Q    Q       Q    E  Q    E  Q       Q    Q    Q    Q     
----------------------|-----------------------|----------------------|
----------------------|----------3----3-------|----------------------|
----------------------|-----------------------|--5----5----5----5----|
--1----1----1----1----|--1----1----------1----|----------------------|


  Q    Q    Q    Q       Q    Q    Q    Q       Q    Q    E  S S S S E   
----------------------|----------------------|--------------------------|
----------------------|----------------------|--------------------------|
--3----3----3----3----|----------------------|--------------------------|
----------------------|--1----1----1----1----|--1----1----1----1-1-3-5--|


  H        H           H        E  E  E  E     H        H         
--------------------|-----------------------|--------------------|
--------------------|-----------------------|--------------------|
--------------------|--L--------------------|--------------------|
--5--------5--------|-----------5--4--3--2--|--1--------1--------|


  W                   H        Q    Q       H        H           H        Q    Q     
-------------------|---------------------|--------------------|---------------------|
--L----------------|---------------------|--------------------|--3--------3----2----|
-------------------|---------------------|-----------3--------|---------------------|
-------------------|--5--------L----3----|--5-----------------|---------------------|


  H        H           H        Q    Q       H        H         
--------------------|---------------------|--------------------|
--3--------5--------|---------------------|--------------------|
--------------------|--3--------3---------|--3--------5--------|
--------------------|----------------5----|--------------------|


  H        Q    Q       H        H           H        H         
---------------------|--------------------|--------------------|
--5--------5---------|--5--------4--------|-----------3--------|
----------------5----|--------------------|--------------------|
---------------------|--------------------|--1-----------------|


  Q    Q    Q    Q       Q    Q    Q    Q       Q    Q    E  E  E  E   
----------------------|----------------------|------------------------|
--3----2----3---------|--3----2----3----2----|--3----2----3--2--1--0--|
----------------------|----------------------|------------------------|
----------------------|----------------------|------------------------|


  H        H           H        H           Q    Q    Q    Q     
--------------------|--------------------|----------------------|
--------------------|--------------------|--7----7---------7----|
--4--------5--------|--7--------8--------|------------7---------|
--------------------|--------------------|----------------------|


  Q    Q    Q    Q                           H        H           H        H         
----------------------|-------------------|--------------------|--------------------|
--8---------8----L----|-------------------|--------------------|--------------------|
-------8--------------|-------------------|--4--------5--------|--7--------8--------|
----------------------|-------------------|--------------------|--------------------|


  H        Q    Q       W                   W                   H        H         
---------------------|-------------------|-------------------|--------------------|
--7-------------7----|--8----------------|--L----------------|--------------------|
-----------7---------|-------------------|-------------------|--4--------5--------|
---------------------|-------------------|-------------------|--------------------|


  H        H            H.            Q       H        H         
--------------------|----------------------|--------------------|
--------------------|----------------------|--8--------9--------|
--7--------8--------|--10------------12----|--------------------|
--------------------|----------------------|--------------------|


  H        H           H        H           Q    Q    Q    Q     
--------------------|--------------------|----------------------|
--------------------|--------------------|--7----7---------7----|
--4--------5--------|--7--------8--------|------------7---------|
--------------------|--------------------|----------------------|


  Q    Q    Q    Q       W                   H        H           H        H         
----------------------|-------------------|--------------------|--------------------|
--8---------8----L----|--L----------------|--------------------|--------------------|
-------8--------------|-------------------|--4--------5--------|--7--------8--------|
----------------------|-------------------|--------------------|--------------------|


  Q    Q    Q    Q       Q    Q    Q    Q       W                 
----------------------|----------------------|-------------------|
--7----7---------7----|--8---------8----L----|--L----------------|
------------7---------|-------8--------------|-------------------|
----------------------|----------------------|-------------------|


  H        H           H        H            H.            Q     
--------------------|--------------------|----------------------|
--------------------|--------------------|----------------------|
--4--------5--------|--7--------8--------|--10------------12----|
--------------------|--------------------|----------------------|


  H        H            Q     Q     Q     Q       Q    Q    Q    Q     
--------------------|--------------------------|----------------------|
--8--------9--------|--10----10----10----10----|--8----8----8----8----|
--------------------|--------------------------|----------------------|
--------------------|--------------------------|----------------------|


  Q    Q    Q    Q       Q    Q    Q    Q       W                 
----------------------|----------------------|-------------------|
--7----7----7----7----|--6----6----6----6----|--5----------------|
----------------------|----------------------|-------------------|
----------------------|----------------------|-------------------|


  W                   Q    Q    Q    Q       Q    Q    Q    Q     
-------------------|----------------------|----------------------|
--L----------------|----------------------|----------------------|
-------------------|----------------------|----------------------|
-------------------|--3----3----3----3----|--3----3----3----3----|


  Q    Q    Q    Q       Q    Q    Q    Q       Q    Q    Q    Q     
----------------------|----------------------|----------------------|
----------------------|----------------------|----------------------|
----------------------|----------------------|----------------------|
--1----1----1----1----|--1----1----1----1----|--6----6----6----6----|


  Q    Q    Q    Q       Q    Q    Q    Q       Q    Q    Q    Q     
----------------------|----------------------|----------------------|
----------------------|----------------------|----------------------|
----------------------|----------------------|----------------------|
--6----6----6----6----|--1----1----1----1----|--1----1----1----1----|


  Q    Q    Q    Q       Q    Q    Q    Q       Q    Q    Q    Q     
----------------------|----------------------|----------------------|
----------------------|----------------------|----------------------|
----------------------|----------------------|----------------------|
--3----3----3----3----|--3----3----3----3----|--1----1----1----1----|


  Q    Q    Q    Q       Q    Q    Q    Q       Q    Q    Q    Q     
----------------------|----------------------|----------------------|
----------------------|----------------------|----------------------|
----------------------|----------------------|----------------------|
--1----1----1----1----|--6----6----6----6----|--6----6----6----6----|


  Q    Q    Q    Q       Q    Q    Q    Q       Q    Q    Q    Q     
----------------------|----------------------|----------------------|
----------------------|----------------------|----------------------|
----------------------|----------------------|----------------------|
--1----1----1----1----|--1----1----1----1----|--3----3----3----3----|


  Q    Q    Q    Q       Q    Q    Q    Q       Q    Q    Q    Q     
----------------------|----------------------|----------------------|
----------------------|----------------------|----------------------|
----------------------|----------------------|----------------------|
--3----3----3----3----|--1----1----1----1----|--1----1----1----1----|


  Q    Q    Q    Q       Q    Q    Q    Q       Q    Q    Q    Q     
----------------------|----------------------|----------------------|
----------------------|----------------------|----------------------|
----------------------|----------------------|----------------------|
--6----6----6----6----|--6----6----6----6----|--1----1----1----1----|


  Q    Q    Q    Q              
----------------------|-------||
----------------------|-------||
----------------------|-------||
--1----1----1----1----|-------||

This is my first tab ! Hope it'll help you. Please rate and comment. Enjoy ! :)




Duration Legend
---------------
W - whole
H - half
Q - quarter
E - 8th
S - 16th
T - 32nd
X - 64th
. - note dotted
|-n-|  - n-tuplets


Tablature Legend
----------------
L - tied note
x - dead note
g - grace note
(n) - ghost note
> - accentuded note
NH - natural harmonic
AH - artificial harmonic
TH - tapped harmonic
SH - semi harmonic
PH - pitch harmonic
h - hammer on
p - pull off
b - bend
br - bendRelease
pb - preBend
pbr - preBendRelease
brb - bendReleaseBend
\n/ - tremolo bar dip
\n - tremolo bar dive
-/n - tremolo bar Release up
/n\ - tremolo bar inverted dip
/n - tremolo bar return
-\n - tremolo bar Release down
S - shift slide
s - legato slide
/ -  slide into from below or out of upwards
\ -  slide into from above or out of downwards
~ - vibrato
W - wide vibrato
tr - trill
TP - tremolo picking
T - tapping
S - slap
P - pop
< - fade in
^ - brush up
v - brush down
Suggest correction
Creating personal tab
Creating personal tab
You can edit any tab online and save it as your Personal.

You can edit, replace or remove any tab part or add personal notes – all changes will be seen only by you.

Personal tabs can be accessed anytime from any device, even offline.
Learn more »
Give kudos to tab author, rate the tab!
1 2 3 4 5
comments
print report bad tab
guest
You may want to rate the tab now too:
select rating
Wanna post a correction for this tab? Suggest correction