Oops, an error
Loading. Please wait.

Lezbian Girlfriends Bass Tab

by Mi6
1,055 views 1 this week
no commentswrite comment
1 2 3 4 5
3 more votes to show rating
add to favorites
launch autoscroll
font size
0
reset
guitar tuner
Autoscroll
slow
fast
+/-
esc
set tempo
stop
Help us to improve Ultimate-Guitar.com Take our survey!
×
Author
Band: MI6
Song: Lezbian girlfriends
Album: Lunchbox
Tabbed by Reglisse

Official website: www.mi6.net/ 
MI6 is an explosive four piece punk rock band that hails from Lawrence, Kansas.
This is one of their better songs. It's quite simple but great.
I think this should be right..

Intro: 

G----------|
D----------|
A---4--5---|
E----------|

Verse:

enter after 0:10 with

G----------------------|
D----------------------|
A---5-5--4-4--2-2--0-0-|
E----------------------|

then 2x

G--------------------|
D--------------------|  
A---------------5>---|
E---5>--0>--2>-------|

Chorus: 4x

G---------------------------|
D---------------------------|
A---------------------5-5---|
E---5-5-*-0-0-*-2-2-*-------|

Verse (without the A--55-44-22-00-| part) 4x

Chorus 4x

Bridge:

G----------I---I---I---I------I---I---I---I------|
D----------I---I---I---I------I---I---I---I------|
A-55555555-I-2-I---I---I-5555-I-2-I---I---I-5555-|
E----------I---I-0-I-3-I------I---I-0-I-3-I------|

then 2x

G------I------I------I------|
D------I------I------I------|
A-2222-I------I------I-5555-|
E------I-0000-I-3333-I------|

then

G------------------------|
D------------------------|
A---7-7-7-7--------------|
E------------0-0-0-0-----|

Verse 4x

Chorus 'til the end

End with E--5--|
Suggest correction
Give kudos to tab author, rate the tab!
1 2 3 4 5
comments
print report bad tab
guest
You may want to rate the tab now too:
select rating
Wanna post a correction for this tab? Suggest correction