Oops, an error
Loading. Please wait.

Esperar Eternamente Tab

5 views 1 this week
no commentswrite comment
1 2 3 4 5
3 more votes to show rating
add to favorites
launch autoscroll
font size
0
reset
how to read this tab
guitar tuner
×
Best way to learn
"Esperar Eternamente"
Autoscroll
slow
fast
+/-
esc
set tempo
stop
|--------------------------|
|--------------------------|
|--------------------------| (x2)
|--------------------------|
|-------8--8-----5-5-5-5-5-|
|-6---6------8--8----------|


|-------------------------------12h13-12-8-|
|-----10---------10---------10-------------|
|---10--10-----10--10-----10---------------| (x2)
|-8---------10---------12------------------|
|------------------------------------------|
|------------------------------------------|


(con distorcion)

|-13p8-12p8-(x7)-12h13-12-|
|-------------------------|
|-------------------------| (x2)
|-------------------------|
|-------------------------|
|-------------------------|


                      t
|-13p8-12p8-13p8-12p8-15p8-13p8-12p8-(x2)-12h13-12-|
|--------------------------------------------------|
|--------------------------------------------------| (x2)
|--------------------------------------------------|
|--------------------------------------------------|
|--------------------------------------------------|
 Estas lagrimas (no son por ti) esta sangre ...


|---------------------------------18-17-13--12-12h13p12-|
|-----------10---------10-------------------------------|
|--------10---------------10----------------------------| (x2)
|-777--8-------101010--------10-------------------------|
|-777----------101010-----------------------------------|
|-555----------8-8-8------------------------------------|
       Te odio        Te amo       Ya no es igual
                                   ^
                                   |
                                   D5 en la segunda repeticion


|-18--17--13-----20--(x4)------------|
|------------------------------------|
|------------------------------------|
|------------------------------------|
|------------------------------------|
|------------------------------------|
Donde estas      no se si te encuntre
Al final         quizas ya no estes
Me haces llorar  me haces llorar
me haces llorar  ya no puedo mas


|------------------------|
|--------------6--5/6/5--|
|-xx5-xx5-x5-xx5--4/5/4--| (x2)
|-xx5-xx5-x5-xx3--2/3/2--|
|-xx3-xx3-x3-xx----------|
|------------------------|


|--------------------------------------------------|
|--------------------------------------------------|
|-77777-10101010-9999-1010101010-15151515-14141414-| (x2)
|-xxxxx-x-x-x-x--xxxx-x-x-x-x-x--x-x-x-x--x-x-x-x--|
|-55555-8-8-8-8--7777-8-8-8-8-8--13131313-12121212-|
|--------------------------------------------------|


|--------------------------------------|
|--------------------------------------|
|-10-9-10-9-101010--15-14-15-14-171717-| (x4)
|-x--x-x--x-x-x-x---x--x--x--x--x-x-x--|
|-8--7-8--7-8-8-8---13-12-13-12-151515-|
|--------------------------------------|
 Hoy me odie        no cambie
 me mate por        ti ...
 Hoy me odie        no cambie
 me mate por        ti ...


|---------------------------------18-17-13--12-12h13p12-|
|-----------10---------10-------------------------------|
|--------10---------------10----------------------------| (x2)
|-777--8-------101010--------10-------------------------|
|-777----------101010-----------------------------------|
|-555----------8-8-8------------------------------------|
       Te odio        Te amo       Ya no es igual


|-13-12-8--13-13-13-12-12-12-|
|----------------------------|
|----------------------------|
|----------------------------|
|----------------------------|
|----------------------------|

|-13-12-13-15-13-12-13-12-13-15-13-12-13-12-|
|-------------------------------------------|
|-------------------------------------------|
|-------------------------------------------|
|-------------------------------------------|
|-------------------------------------------|
           t                  t
|-13-12-13-20-13-12-13--12-13-20-13-12-13--12-|
|---------------------------------------------|
|---------------------------------------------|
|---------------------------------------------|
|---------------------------------------------|
|---------------------------------------------|

|-18-17-13--17--|
|---------------|
|---------------|
|---------------|
|---------------|
|---------------|

(esto va con lo de arriba)
Tragame extremo dolor que de la infinita soledad
rodea todo mi ser, bienvenido a mi pesadilla
y a mi realidad,mi corazon,mi corazon aun sangra por ti

|---------|
|------10-|
|---10----| (x11)
|-8-------|
|---------|
|---------|

_________________________________________

 t = taping

 h = hammer on

 p = pull off

 / = deslizar el dedo de un taste a otro

 x = palm muted

_________________________________________


ahi termina espero q se pueda entender
es la primera tab q se publica de
mi numero perfecto..deberian sakar mas
canciones de este grupo muy bueno
weno aprovecho la tab pa mandar saludos
a piki, karlosho y toa la gente del cole
Suggest correction
Give kudos to tab author, rate the tab!
1 2 3 4 5
comments
print report bad tab
guest
You may want to rate the tab now too:
select rating
Wanna post a correction for this tab? Suggest correction