Oops, an error
Loading. Please wait.

Bad Boy chords

289 views 6 this week
no commentswrite comment
1 2 3 4 5
3 more votes to show rating
add to favorites
×
Save as Personal and add changes to this tab that will be seen only by you. Learn more ›
×
You can save this tab as Personal to edit and correct it or add notes. All changes will be seen only by you. Learn more »
launch autoscroll
font size
0
reset
transpose
0
reset
simplify chords
display chords
guitar tuner
edit
Autoscroll
slow
fast
+/-
esc
set tempo
stop
Author
Difficulty
Strumming
There is no strumming pattern for this song yet. and get +5 IQ
Miami Sound Machine - "Bad Boy"
------------------------------------- 
STANDARD TUNING 
Tabbed by MegaT0ne

[Intro]

Eb              D                  Ab                  Bb
E|------------------------------------------------------------------------------| 
B|------------------------------------------------------------------------------| 
G|-3-5-3-5-3-5p3-3h5--3-5-3-5-3-5p3-3h5--1-3-1-3-1-3p1-1h3---3-5-3-5-3-5p3-3h5--| 
D|------------------------------------------------------------------------------| 
A|------------------------------------------------------------------------------| 
E|------------------------------------------------------------------------------| 

N.C
(Boys will be boys, bad boy, bad boy
Boys will be boys, bad boy, bad boy)


[Chorus]

D#                 G#m7
Bad, bad, bad, bad boy
    A#m7            D#
You make me feel so good
E|---------------------------------| 
B|---------------------------------| 
G|---8-8-8-10p8--------------------| 
D|--------------10-----------------| 
A|------------------10-10-10-8-8---| 
E|---------------------------------| 

D#                              G#m7
You naughty bad, bad, bad, bad, boy
    A#m7            D#
You make me feel so good, knew you would


[Verse]

Gm                  G#
The way you hold me tight
                      Cm
You get me so excited
E|---------------------| 
B|---------------------| 
G|---5-5p3---5-5-5p3---| 
D|---------5-----------| 
A|---------------------| 
E|---------------------|

Gm                G#
You do me, oh, so right
                                     Cm
My heart goes beat beat, beat beat, beat beat


[Chorus]

D#                 G#m7
Bad, bad, bad, bad boy
    A#m7            D#
You make me feel so good
E|---------------------------------| 
B|---------------------------------| 
G|---8-8-8-10p8--------------------| 
D|--------------10-----------------| 
A|------------------10-10-10-8-8---| 
E|---------------------------------| 

D#                              G#m7
You naughty bad, bad, bad, bad, boy
    A#m7            D#
You make me feel so good, knew you would

[Verse Instrumental]
Gm G#
Cm
Gm G#
Cm


[Bridge]

Eb
(Boys will be boys)
Always get so restless
D
(Bad boy, bad boy)
Ab
(Boys will be boys)
Nothin' but trouble
Bb
(Bad boy, bad boy)

Eb
(Boys will be boys)
If you're feelin' breathless
D
(Bad boy, bad boy)
Ab
(Boys will be boys)
Nothin' but trouble
Bb
(Bad boy, bad boy)

Eb              D                  Ab                  Bb
E|------------------------------------------------------------------------------| 
B|------------------------------------------------------------------------------| 
G|-3-5-3-5-3-5p3-3h5--3-5-3-5-3-5p3-3h5--1-3-1-3-1-3p1-1h3---3-5-3-5-3-5p3-3h5--| 
D|------------------------------------------------------------------------------| 
A|------------------------------------------------------------------------------| 
E|------------------------------------------------------------------------------| 


[Verse]

Gm                    G#
And when he drives me home
                     Cm
I feel safe at night
E|---------------------| 
B|---------------------| 
G|---5-5p3---5-5-5p3---| 
D|---------5--------5--| 
A|---------------------| 
E|---------------------|
Gm                 G#
You call me on the phone
                                       Cm
It goes ring, ring, ring, ring-a-ring, ring


[Chorus]

D#                 G#m7
Bad, bad, bad, bad boy
    A#m7            D#
You make me feel so good
E|---------------------------------| 
B|---------------------------------| 
G|---8-8-8-10p8--------------------| 
D|--------------10-----------------| 
A|------------------10-10-10-8-8---| 
E|---------------------------------| 

D#                              G#m7
You naughty bad, bad, bad, bad, boy
    A#m7            D#
You make me feel so good, knew you would



************************************

| h  Hammer-on
| p  Pull-off 

************************************
Suggest correction
Creating personal tab
Creating personal tab
You can edit any tab online and save it as your Personal.

You can edit, replace or remove any tab part or add personal notes – all changes will be seen only by you.

Personal tabs can be accessed anytime from any device, even offline.
Learn more »
Give kudos to tab author, rate the tab!
1 2 3 4 5
comments
print report bad tab
guest
You may want to rate the tab now too:
select rating
Wanna post a correction for this tab? Suggest correction