Oops, an error
Loading. Please wait.

Mad World bass

version 1
version 1

Whole song

Interactive

1,827 views 3 this week
3 commentsread comments
1 2 3 4 5
x 3
add to favorites
×
Save as Personal and add changes to this tab that will be seen only by you. Learn more ›
×
You can save this tab as Personal to edit and correct it or add notes. All changes will be seen only by you. Learn more »
launch autoscroll
font size
0
reset
guitar tuner
edit
Autoscroll
slow
fast
+/-
esc
set tempo
stop
Author
 This tab is awesome please use it this tab rocks

Cheers The Giagalo


Mad World Michael Andrews


G|------2-2-----6-6-6-2--4-4-4----4-4-4-2-1-----| verse
D|--4-4-----4-4----------------6------------4---| X4
A|----------------------------------------------| "all around me.."
E|----------------------------------------------|

G|------2-2-6-6-8-4--4-8-8-4-4------------------| chorus
D|--4-4-------------------------4---------------| X4
A|----------------------------------------------| "and I find it.."
E|----------------------------------------------|

G|--2----| bridge
D|----4--| X4
A|-------| "..Mad World"
E|-------|

       repeat the whole song again 

            
            
Suggest correction
Creating personal tab
Creating personal tab
You can edit any tab online and save it as your Personal.

You can edit, replace or remove any tab part or add personal notes – all changes will be seen only by you.

Personal tabs can be accessed anytime from any device, even offline.
Learn more »
Give kudos to tab author, rate the tab!
1 2 3 4 5
comments
print report bad tab
3 comments total.
0 reply
killing spree 46 May 13, 2007 10:43 AM

sounds good
plz make it so its easier to tell if notes are quarter, eigth, etc.

0 reply
killing spree 46 May 13, 2007 10:50 AM

like this (verse):
G|-----2-2-----6-6---6---2-----4-4---4---------4-4---4---2-1-------|
D|-4-4-----4-4---------------------------6-------------------4-----|
A|-----------------------------------------------------------------|
E|-----------------------------------------------------------------|

0 reply
killing spree 46 May 13, 2007 10:56 AM

and this (chorus):
G|-----2-2-6-6-8-4---4-8-8-4-4---------2-2-6-6-8-4---4-8-8-4-4-------|
D|-4-4-------------------------4-----4-------------------------4-----|
A|-------------------------------------------------------------------|
E|-------------------------------------------------------------------|

guest
You may want to rate the tab now too:
select rating
Wanna post a correction for this tab? Suggest correction