Oops, an error
Loading. Please wait.

Mad World Tab

version 4
version 4

Whole song

Interactive

13 views 1 this week
no commentswrite comment
1 2 3 4 5
3 more votes to show rating
add to favorites
launch autoscroll
font size
0
reset
how to read this tab
guitar tuner
Autoscroll
slow
fast
+/-
esc
set tempo
stop
Help us to improve Ultimate-Guitar.com Take our survey!
×
Author
Difficulty
intermediate
[Intro]

e|-8---12-7-8-5-7-3-2---2---2------------------------------------------------|
B|----------------------3---3------------------------------------------------|
G|----------------------2---2------------------------------------------------|   
D|--------------------0---0--------------------------------------------------|   |1x
A|---0-----------------------------------------------------------------------|
E|---------------------------------------------------------------------------|

e|-8---12-7-8-5-7-8-10-------------------------------------------------------|
B|-----------------------7---7-----------------------------------------------|
G|-----------------------7---7-----------------------------------------------|
D|---------------------0---0-------------------------------------------------|   |1x
A|---0-----------------------------------------------------------------------|
E|---------------------------------------------------------------------------|


[Verse]

e|---------------0-0---0-----------------------------------------------------|
B|-------1-1---------------1----3-3---3---0----3-3---3---1-0-----------------|
G|---2-2----2-2------0-------0------0-------0------2-------------------------| 
D|-------------------2-------2------0-------0--0---3---0-----2---------------|   |4x
A|-0-----0-------3-------3---------------------------------------------------|
E|------------------------------3-------3------------------------------------|

e|-----------0-0-2-------2-2-------------------------------------------------|
B|-------1-1-------3---3-----3-3---------------------------------------------|
G|---2-2-------------2-------------------------------------------------------|
D|---------------0-------0---------------------------------------------------|   |1x
A|-0-----0-------------------------------------------------------------------|
E|---------------------------------------------------------------------------|

e|-----------0-0-2-------2-2-------------------------------------------------|
B|-------1-1-------3---3-----3-3---------------------------------------------|
G|-2-2-2-------------2-------------------------------------------------------|
D|---------------0-------0---------------------------------------------------|   |2x
A|-0-----0-------------------------------------------------------------------|
E|---------------------------------------------------------------------------|

e|-----------0-0-2-----------------------------------------------------------|
B|-------1-1-------3---------------------------------------------------------|
G|-2-2-2-------------2-------------------------------------------------------|
D|---------------0-----0-----------------------------------------------------|  |1x
A|-0-----0-------------------------------------------------------------------|
E|---------------------------------------------------------------------------|


[Outro]


e|-8---12-7-8-5-7-3-2---2---2------------------------------------------------|
B|----------------------3---3------------------------------------------------|
G|----------------------2---2------------------------------------------------|   
D|--------------------0---0--------------------------------------------------|   |1x
A|---0-----------------------------------------------------------------------|
E|---------------------------------------------------------------------------|

e|-8---12-7-8-5-7-8-10-------------------------------------------------------|
B|-----------------------7---7-----------------------------------------------|
G|-----------------------7---7-----------------------------------------------|
D|---------------------0---0-------------------------------------------------|   |1x
A|---0-----------------------------------------------------------------------|
E|---------------------------------------------------------------------------|

e|-8---12-7-8-5-7-3-2---2---2------------------------------------------------|
B|----------------------3---3------------------------------------------------|
G|----------------------2---2------------------------------------------------|   
D|--------------------0---0--------------------------------------------------|   |1x
A|---0-----------------------------------------------------------------------|
E|---------------------------------------------------------------------------|

e|-8---12-7-8-5-7-8-10-------------------------------------------------------|
B|-----------------------7---7-----------------------------------------------|
G|-----------------------7---7-----------------------------------------------|
D|---------------------0---0-------------------------------------------------|   |1x
A|---0-----------------------------------------------------------------------|
E|---------------------------------------------------------------------------|
Suggest correction
Give kudos to tab author, rate the tab!
1 2 3 4 5
comments
print report bad tab
guest
You may want to rate the tab now too:
select rating
Wanna post a correction for this tab? Suggest correction