Oops, an error
Loading. Please wait.

The Finish Line tab

4,430 views 1 this week
no commentswrite comment
1 2 3 4 5
1 last vote to show rating
add to favorites
×
Save as Personal and add changes to this tab that will be seen only by you. Learn more ›
×
You can save this tab as Personal to edit and correct it or add notes. All changes will be seen only by you. Learn more »
launch autoscroll
font size
0
reset
how to read this tab
guitar tuner
edit
Autoscroll
slow
fast
+/-
esc
set tempo
stop
Author
Difficulty
The Finish Line

Michael Angelo Batio

Tradition

Standard tuning ( E A D G B E )

============================================================================

Intro ( Clean /very little distortion)

|-------------------------------------|
|-------------------------------------|
|-------5v----------------------------|
|--5h7--------7-5h7-7p5v--7\----------|
|-------------------------------------|
|-------------------------------------|

|-------------------------------------|
|-------------------------------------|
|-------5v----------------------------|
|--5h7-------5h7p5-----5--------------|
|-------------------7-----7\5--3v-----|
|-------------------------------------|

|---------8-8----8---------8----------------------------|
|-------8-----11---11-9h10---10-x-9---9-10p9p8-10--8v---|
|-----9-------------------------------------------------|
|--10---------------------------------------------------|
|-------------------------------------------------------|
|-------------------------------------------------------|

|----------------------------8-10-8-11-8-11-11p10p9p8-----|
|----------8-10-11-11---9h10------------------------------|
|--10-8h9-------------------------------------------------|
|---------------------------------------------------------|
|---------------------------------------------------------|
|---------------------------------------------------------|

|----------------------------------10-8------|
|--11-10-8------------------------------12---|
|-----------10-8h9p8-------------------------|
|--------------------10-7----10--------------|
|-------------------------10-----------------|
|--------------------------------------------|

|--7-6-5-----------------------------------------------------|
|--------6-----------------------------10-8------------------|
|----------7-4-----------------------9------9----------------|
|--------------7-6-5-4--4-4-3------9----------10-7----9-10---|
|--------------------------------8-----------------10--------|
|------------------------------------------------------------|

|---------------------------------------------------------|
|--7--8---7--8---7--6--7--6--5--6--5--4--3--4--5----------|
|--8--9---8--9---8--7--8--7--6--7--6--5--4--5--6----------|
|--6--7---6--7---6--5--6--5--4--5--4--3--2--3--4---4v-----|
|--9--10--9--10--9--8--9--8--7--8--7--6--5--6--7----------|
|---------------------------------------------------------|

Intro 2 ( With distotion)

|----------------------------------------------------------8-10--|
|-------------------------------------------------------10-------|
|--0--0--2-------5-7-8p7p5h7p5---7---5-7-5b-------7h8h9----------|
|--0--0--2----/7---------------7---7--------7-5-7----------------|
|--------0-------------------------------------------------------|
|----------------------------------------------------------------|

                                   *>>>>>>>Repeat 4 times<<<<<<<*
|--11p10p8h10p8----8---------8-10-8-11p8h10p8----8h11p8h10p8----8--12-----|
|---------------10---10-8-10------------------10-------------10----13-----|
|------------------------------------------------------------------14-----|
|-------------------------------------------------------------------------|
|-------------------------------------------------------------------------|

|----------------------------------------------------------------------|
|--8-10p8---8-----------------------------------------7br(9)--5-5--3---|
|---------9---9s7-5-7-9-5---7---5---------------------7br(9)--5-5--3---|
|-------------------------7---7---7-5----------------------------------|
|-------------------------------------7s5-3-5---3-5b-------------------|
|---------------------------------------------5------------------------|

|-----------------------------------------------------------------|
|-----------------------------------------------------------------|
|-----------------------------------------------------------5-----|
|---------------------------------------------------5-7p5h7---7---|
|---------------3-5-5--5b--3------------------3-5-7---------------|
|--3h5p3p0--3-5--------------5--3h5p3p0--3-5----------------------|
           pm--------|                   pm-----------------------|

|---------------------------------------------------------------|
|---------------------------------------------------------------|
|---------------------------------------------------------------|
|------------------------------------------------------7--------|
|---------------------------------------------5-7p5-------------|
|---------------3-5-5--5b--3-5-5-3------3-5-7-------7-----7-----|
|--3h5p3p0--3-5--------------------5--5-------------------------|
           pm---------------------------------------------------|

|-------------------------------------|
|-------------------------------------|
|--5b---------------------------------|
|------7-5b---------------------------|
|------------7-6-5-3-5b-5b------------|
|---------------------------5-3-5v----|

|------------------------------------------------------------------------|
|-----------------------------------------------8------------------------|
|------------5-7b-5-----5---7---5-----------7s9---9-7s5--------2--2-2-2--|
|--------5-7--------7-5---7---7---7-5-7---5-------------7-5-7--2--2-2-2--|
|--5-6h7-------------------------------------------------------0--0-0-0--|
|------------------------------------------------------------------------|

Main theme

|------------------------------------------------------|
|------------------------------------------------------|
|------------0-----0-----------------0-----0-----------|
|------2-4h5---4h5---2h4-0-----2-4h5---4h5---2h4-0-----|
|--3h4---------------------3h4-------------------------|
|------------------------------------------------------|

|------------------------------------------------------|
|------------------------------------------------------|
|------------0-----0-----0-4-2-0-----------------------|
|------2-4h5---4h5---2h4---------4-2-0-----2-4-2-0-----|
|--3h4---------------------------------3-4-------------|
|------------------------------------------------------|

|------------------------------------------------------|
|------------------------------------------------------|
|------------0-----0-----------------0-----0-----------|
|------2-4h5---4h5---2h4-0-----2-4h5---4h5---2h4-0-----|
|--3h4---------------------3h4-------------------------|
|------------------------------------------------------|

|------------------------------------------------------|
|------------------------------------------------------|
|------------0-----0-----0-4-2-0-----------------------|
|------2-4h5---4h5---2h4---------4-2-0-----2-4-2-0-----|
|--3h4---------------------------------3-4-------------|
|------------------------------------------------------|

  *Repeat 3 times*
|-------------------7p3---------2-------------|
|-----------------------3-----5---3-----------|
|------2-2-2-2------------4-0-------2---------|
|------2-2-2-2------------------------4-------|
|--3b--0-0-0-0--------------------------5-0---|
|---------------------------------------------|

  *Repeat 3 times*
|-------------------------------------------------|
|-------------------------------------------------|
|------2-2-2-2------5-2-------------------2-5v----|
|------2-2-2-2----------5-2-----------2-5---------|
|--3b--0-0-0-0--------------5-3---3-5-------------|
|-------------------------------2-----------------|

Arpeggio theme

|--------17-22p17----------17-20p17----------17-18p15----------15-17p13--|
|-----18----------18----18----------17----17----------15----15-----------|
|--19----------------19----------------17----------------15--------------|
|------------------------------------------------------------------------|
|------------------------------------------------------------------------|
|------------------------------------------------------------------------|

|-----------13-15p12----------12-13p10----------10-12p9----------9-15---|
|--15----15----------14----14----------10----10---------11----11--------|
|-----14----------------15----------------10---------------12-----------|
|-----------------------------------------------------------------------|
|-----------------------------------------------------------------------|
|-----------------------------------------------------------------------|

|--------17-22p17----------17-20p17----------17-18p15----------15-17p13--|
|-----18----------18----18----------17----17----------15----15-----------|
|--19----------------19----------------17----------------15--------------|
|------------------------------------------------------------------------|
|------------------------------------------------------------------------|
|------------------------------------------------------------------------|

|-----------13-15p12------------------13-12----------------------------------|
|--15----15----------14---------14-15-------15-14-15-14-12-------------------|
|-----14----------------15---15----------------------------15-14-12-------12-|
|-------------------------------------------------------------------15-13----|
|----------------------------------------------------------------------------|
|----------------------------------------------------------------------------|

|--------17-22p17----------17-20p17----------17-18p15----------15-17p13--|
|-----18----------18----18----------17----17----------15----15-----------|
|--19----------------19----------------17----------------15--------------|
|------------------------------------------------------------------------|
|------------------------------------------------------------------------|
|------------------------------------------------------------------------|

|-----------13-15p12------------------------------|
|--15----15----------14---------------------------|
|-----14----------------15p12---------------------|
|-----------------------------14------------------|
|--------------------------------16p13------------|
|--------------------------------------15p12v-----|

|--------17-22p17----------17-20p17----------17-18p15----------15-17p13------|
|-----18----------18----18----------17----17----------15----15----------15---|
|--19----------------19----------------17----------------15---------------14-|
|----------------------------------------------------------------------------|
|----------------------------------------------------------------------------|
|----------------------------------------------------------------------------|

|-----------13-12------------------------------------------------------------|
|-----11-15-------15-14-11-------11------------------------------------------|
|--14----------------------14-12----14-12-10-14-12-10------12-10-------------|
|-----------------------------------------------------14-12------14-12-11-12-|
|----------------------------------------------------------------------------|
|----------------------------------------------------------------------------|

|--------16-21p16----------16-19p16----------16-21p16----------16-19p16--|
|-----17----------17----17----------17----17----------17----17-----------|
|--18----------------18----------------18----------------18--------------|
|------------------------------------------------------------------------|
|------------------------------------------------------------------------|
|------------------------------------------------------------------------|

|-----16-21p16--------16-19p16----------16-18p16----------16-21p16--|
|--17----------17--------------16----16----------16----16-----------|
|-----------------18--------------16----------------16--------------|
|-------------------------------------------------------------------|
|-------------------------------------------------------------------|
|-------------------------------------------------------------------|

|-----------16-19p16----16-19----------16-19p16----------16-18p16------|
|--16----16----------16-------------17----------17----17----------17---|
|-----16-------------------------16----------------16------------------|
|----------------------------------------------------------------------|
|----------------------------------------------------------------------|
|----------------------------------------------------------------------|

|--------16-21p16----------16-19p16----------14-19p14----------14-19p14--|
|-----17----------17----17----------17----16----------16----16-----------|
|--16----------------16----------------16----------------16--------------|
|------------------------------------------------------------------------|
|------------------------------------------------------------------------|
|------------------------------------------------------------------------|

|--18p14-----------------------17--------------13-12-------------------------|
|--------14----------14-----18--------11-13-14-------14-13-------------------|
|-----------15----15-----19--------14----------------------15-14-12-15-14-12-|
|--------------16------------------------------------------------------------|
|----------------------------------------------------------------------------|
|----------------------------------------------------------------------------|

|-----------------------------------------------------------------------|
|-----------------------------------------------------------------------|
|--------12-------12----------------------------------------------------|
|--15-14----15-14----15-14-12-15-14-12-11-14-12-11----12-11-------------|
|--------------------------------------------------13-------13-12-10----|
|-----------------------------------------------------------------------|

|------------------------------------------------------------|
|------------------------------------------------------------|
|------------------------------------------------------------|
|------------------------------------------------------------|
|--13-12-10----12-10-------10--------------------------------|
|-----------13-------13-12----13-12-10-13-12-10-9-12-10v-----|

|--12p8---------8-10p7--------7-8p5-------5-7p4-------4-5p2-------2--|
|-------10---10--------9----9-------5---5-------6---6-------2---2----|
|----------9-------------10-----------5-----------7-----------2------|
|--------------------------------------------------------------------|
|--------------------------------------------------------------------|
|--------------------------------------------------------------------|

|--6p3-------3-9p6-------6-13p10----------10-12p9----------9--|
|------5---5-------8---8---------10----10---------11----11----|
|--------6-----------9--------------10---------------12-------|
|-------------------------------------------------------------|
|-------------------------------------------------------------|
|-------------------------------------------------------------|

|--10p7-------7-9p6-------6-8p5-------5-7p4-------7-10p7--------7---|
|-------7---7-------8---8-------6---6-------6---6--------9----9-----|
|---------7-----------9-----------5-----------7------------10-------|
|-------------------------------------------------------------------|
|-------------------------------------------------------------------|
|-------------------------------------------------------------------|

|--13p10----------10-12p9----------9-15p12----------12-18p15----------15-21--|v
|--------12----12---------11----11---------14----14----------17----17--------|
|-----------13---------------12---------------15----------------18-----------|
|----------------------------------------------------------------------------|
|----------------------------------------------------------------------------|
|----------------------------------------------------------------------------|

|--------11-12-------------13-14-------------15-16--------17----|
|-----12-------13-------14-------15-------16-------17-----18----|
|--13-------------14-15-------------16-17-------------18--19----|
|---------------------------------------------------------------|
|---------------------------------------------------------------|
|---------------------------------------------------------------|

|-------------------------------------------|
|--12--11--10--9---8---7---6----------------|
|--12--11--10--9---8---7---6----0--0--2-----|
|--14--13--12--11--12--11--10---0--0--2-----|
|-------------------------------------0-----|
|-------------------------------------------|

            
            
Suggest correction
Creating personal tab
Creating personal tab
You can edit any tab online and save it as your Personal.

You can edit, replace or remove any tab part or add personal notes – all changes will be seen only by you.

Personal tabs can be accessed anytime from any device, even offline.
Learn more »
Give kudos to tab author, rate the tab!
1 2 3 4 5
comments
print report bad tab
guest
You may want to rate the tab now too:
select rating
Wanna post a correction for this tab? Suggest correction