Oops, an error
Loading. Please wait.

Crazy For You Tab

2,179 views 1 this week
no commentswrite comment
1 2 3 4 5
2 more votes to show rating
add to favorites
launch autoscroll
font size
0
reset
how to read this tab
guitar tuner
Autoscroll
slow
fast
+/-
esc
set tempo
stop
Help us to improve Ultimate-Guitar.com Take our survey!
×
Author
SOLO:
e|-9h10/12~----10/12~--10-9-----------------------10/12-----|
B|---------------------------10/12~--10~----------------14--|
G|-----------------------------------------9/10-------------|
D|----------------------------------------------14----------|
A|----------------------------------------------------------|
E|----------------------------------------------------------|

e|-----------9h10/12~-12/14-12~-10/12~-10-9-----------------|
B|-10/12------------------------------------10/12~-14~------|
G|-------14-------------------------------------------------|
D|----------------------------------------------------------|
A|----------------------------------------------------------|
E|----------------------------------------------------------|

e|----------------------------------------------------------|
B|-10H12P10----------10/12-----14H15P14---------14-14H15P14-|
G|-----------9/10----------14----------14H16P14-------------|
D|----------------14----------------------------------------|
A|----------------------------------------------------------|
E|----------------------------------------------------------|

e|---------14-14H15P14----------14-14H15P14----------15-17~-|
B|14H16P14-------------14H16P14-------------14H16P14--------|
G|----------------------------------------------------------|
D|----------------------------------------------------------|
A|----------------------------------------------------------|
E|----------------------------------------------------------|

e|----------------------------------------------------------|
B|-15H17P15-14-14H15P14-------------------------------------|
G|----------------------14H16P14----------------------------|
D|-------------------------------14H16P14-------------------|
A|----------------------------------------14H16P14----------|
E|-------------------------------------------------14H16P14-|

e|----------------------------------14H15-17----------------|
B|----------------------14-14-15-17----------------14/16-19-|
G|-------------14H16-16---------------------16-14~----------|
D|-------14H16----------------------------------------------|
A|-14H16----------------------------------------------------|
E|----------------------------------------------------------|

e|-17-19-19-19B21R19-19-17H19-15H17P15-14-------------------|
B|----------------------------------------15-17-------------|
G|----------------------------------------------16-------14-|
D|-------------------------------------------------14/16----|
A|----------------------------------------------------------|
E|----------------------------------------------------------|

e|-------14-15/17-17-17/19-19~\-----------------------------|
B|-15/17----------------------------------------------------|
G|----------------------------------------------------------|
D|----------------------------------------------------------|
A|----------------------------------------------------------|
E|----------------------------------------------------------|
Suggest correction
Give kudos to tab author, rate the tab!
1 2 3 4 5
comments
print report bad tab
guest
You may want to rate the tab now too:
select rating
Wanna post a correction for this tab? Suggest correction