Oops, an error
Loading. Please wait.

Life And Death Tab

version 3
version 3

Whole song

Interactive

2,266 views 6 this week
no commentswrite comment
1 2 3 4 5
1 last vote to show rating
add to favorites
launch autoscroll
font size
0
reset
how to read this tab
guitar tuner
Autoscroll
slow
fast
+/-
esc
set tempo
stop
Help us to improve Ultimate-Guitar.com Take our survey!
×
(/) Slide Up  (\) Slide Down  (h) Hammer On  (p) Pull Off  (b) Bend (r) Release (v) Vibrato

E|--10--------10--------10--------10--------11--------10--------11--------10--------8--|
B|--8---------8---------8---------8---------10--------8---------10--------8---------8--|
G|--8---------7---------8---------7---------8---------8---------8---------8---------7--|
D|-------------------------------------------------------------------------------------|
A|-------------------------------------------------------------------------------------|
E|-------------------------------------------------------------------------------------|

E|--10--10-----10-----10--10--------10--10-----10-----10--10--------11--11-----11-----11-----|
B|--8-------8------8------8------8--8-------8------8------8------8--10------8------8---------|
G|--8-------------------------7-----8-------------------------7-----8------------------------|
D|-------------------------------------------------------------------------------------------|
A|-------------------------------------------------------------------------------------------|
E|-------------------------------------------------------------------------------------------|

E|--10--11--10--11-----11--11-----11-----11--10--8--|
B|--8---------------8--10------8------8------8---8--|
G|--8------------------8---------------------8---7--|
D|--------------------------------------------------|
A|--------------------------------------------------|
E|--------------------------------------------------|
Suggest correction
Give kudos to tab author, rate the tab!
1 2 3 4 5
comments
print report bad tab
guest
You may want to rate the tab now too:
select rating
Wanna post a correction for this tab? Suggest correction