Oops, an error
Loading. Please wait.

The Ellie Badge Tab

11,197 views 9 this week
no commentswrite comment
1 2 3 4 5
x 7
add to favorites
launch autoscroll
font size
0
reset
how to read this tab
guitar tuner
Autoscroll
slow
fast
+/-
esc
set tempo
stop
Help us to improve Ultimate-Guitar.com Take our survey!
×
Difficulty
Capo
novice
5th fret
-------------------------------------------------------------------------------
                             The Ellie Badge (UP Soundtrack) - Michael Giacchino
-------------------------------------------------------------------------------
Tabbed by: Selena
Email: dsylxeic@gmail.com

Tuning: Standard. Capo on 5
Figure out the timings! I'm not too good with these tab things. 
These tabs aren't perfect, but they'll do... for me, at least (:

e|--0------------------0-----------------------------0---------0-------------|
B|1---1--0----------1-----1-----------1-----------------3---------3--1-------|
G|---------0-----0-----------2--2--2-----2--0--0--1--------2------------2----|
D|---------2-----0--------------2--------------0-----------------------------|
A|-------3-----2-------------0-----------------------------------------------|
E|------------------------------------------3--------2---------2--------2----|

e|---------------------------------------------------------1-----------------|
B|------------1--3--1--0--------------0--3--0--------0-----1-----------------|
G|------------------------0-------0------------0--0-----0--2-----------------|
D|-0-----0----------------0-------0------------------------3-----------------|
A|-0-----0-------------------------------------------------3-----------------|
E|----2----------------3------1----------------0-----------1-----------------|

e|----------------------------0---------------0----------0-3-----------------|
B|-----------0-------0-1----1---1-0---------1---1------1---------------------|
G|-------0-2-------2----------------0----0--------2--2-----------------------|
D|---2-3----------------------------2----0-----------------------------------|
A|---2----------------------------3----2----------0--------------------------|
E|-0------------1------------------------------------------3-----------------|

e|----0------0-----2------------------------------------1--------------------|
B|------3------3------3----1-3-1-0---------0-3------0---1--------------------|
G|-1-------2-----2-----------------0----0------0--0---0-2--------------------|
D|---------------------------------0----0---------------3--------------------|
A|------------------------------------------------------3--------------------|
E|----2------2-----2--2----------3----1--------0--------1--------------------|

e|-----------------------------0---3-----------------------------------------|
B|------------0-------0-1----1---1-------------------------------------------|
G|--------0-2-------2----------------0---------------------------------------|
D|----2-3----------------------------2---------------------------------------|
A|----2----------------------------3-----------------------------------------|
E|-0-------------1-----------------------------------------------------------|



************************************

| /   slide up
| \   slide down
| h   hammer-on
| p   pull-off
| ~   vibrato
| +   harmonic
| x   Mute note
| b   Bend
| pb  Pre-bend
| br  Bend release
| pbr Pre-bend release
| brb Bend release bend

************************************
Suggest correction
comments
print report bad tab
guest
You may want to rate the tab now too:
select rating
Wanna post a correction for this tab? Suggest correction