Oops, an error
Loading. Please wait.

Walk And Stalk Tab

40 views 3 this week
no commentswrite comment
1 2 3 4 5
2 more votes to show rating
add to favorites
launch autoscroll
font size
0
reset
how to read this tab
guitar tuner
Autoscroll
slow
fast
+/-
esc
set tempo
stop
Help us to improve Ultimate-Guitar.com Take our survey!
×
Author
Difficulty
Probably not 100% accurate, but it should be ok. I'm not the best at tabbing by ear.

[Intro]

e|-------------------------------------------------------|
B|-------------------------------------------------------|
G|------------------5-----5------------------------------|
D|---7--5-----5--7-----7-----7--5--7--7--5-----5--7------|
A|---------7--------------------------------7--------7---|
E|-------------------------------------------------------|

e|-------------------------------------------------------|
B|-------------------------------------------------------|
G|--------------------5-----5----------------------------|
D|---5--7--5-----5--7-----7-----7--5--7--7--5-----5--7---|
A|------------7--------------------------------7---------|
E|-------------------------------------------------------|

There's a simple two chord progression of C and D (I think) during the bass solo.
Just do one strum, hold for a measure, then switch.
Use a clean tremolo electric guitar to get it right.
The bass solo is similar to the chorus. 
I'm sure you could figure it out if you really wanted to.

[Chorus]

e|-------------------------------------------------------|
B|-------------------------------------------------------|
G|------------------5-----5------------------------------|
D|---7--5-----5--7-----7-----7--5--7---------------------|  x2
A|---------7---------------------------------------------|
E|-------------------------------------------------------|

e|-------------------------------------------------------|
B|-------------------------------------------------------|
G|------------------5-----5-----------5--5-----------5---|
D|---7--5-----5--7-----7-----7--5--7--------7--5--7------|
A|---------7---------------------------------------------|
E|-------------------------------------------------------|

e|-------------------------------------------------------|
B|-------------------------------------------------------|
G|------------------5-----5------------------------------|
D|---7--5-----5--7-----7-----7--5--7--7--5-----5--7------|
A|---------7--------------------------------7--------7---|
E|-------------------------------------------------------|

e|-------------------------------------------------------|
B|-------------------------------------------------------|
G|--------------------5-----5----------------------------|
D|---5--7--5-----5--7-----7-----7--5--7--7--5-----5--7---|
A|------------7--------------------------------7---------|
E|-------------------------------------------------------|


[Bridge]

e|-------------------------------------------------------|
B|-------------------------------------------------------|
G|-------------------------------------------------------|
D|-5--7--5--7--5--5--7--5--7--5--7--5--7--8--8--7--5-----|
A|-------------------------------------------------------|
E|-------------------------------------------------------|

e|-------------------------------------------------------|
B|-------------------------------------------------------|
G|-------------------------------------------------------|
D|-5--7--5--7--5--5--7--5--7--5--7--5--7--5--7--5--------|
A|-------------------------------------------------------|
E|-------------------------------------------------------|

[Outro]

e|-------------------------------------------------------|
B|-------------------------------------------------------|
G|-------5-----------------5-----------------------------|
D|-7--------7--5-----7--------7--5-----7-----------------|
A|----7-----------7-----7-----------7--------------------|
E|-------------------------------------------------------|
Suggest correction
Give kudos to tab author, rate the tab!
1 2 3 4 5
comments
print report bad tab
guest
You may want to rate the tab now too:
select rating
Wanna post a correction for this tab? Suggest correction