Oops, an error
Loading. Please wait.

Doxology Tab

version 1
version 1

Intro

Whole song

5,354 views 6 this week
no commentswrite comment
1 2 3 4 5
2 more votes to show rating
add to favorites
launch autoscroll
font size
0
reset
how to read this tab
guitar tuner
Autoscroll
slow
fast
+/-
esc
set tempo
stop
Help us to improve Ultimate-Guitar.com Take our survey!
×
Author
Difficulty
Tuning
intermediate
D A D G B E
Doxology by Michael Gungor
Introduction as tabbed by Ian Heung

TUNING: Drop D, DADGBE

NOTE: What I have written as triplets in lines 3 and 4, is really a flurry of 
picking that Michael does.  I merely indicated the 3 notes he is playing.

KEY: (/) Slide Up (h) Hammer On
     (t) time: (H|HH) Half  (Q|QQ) Quarter  (E|EE) 8th (S|SS) 16th (X|XX) 32nd
     (T|TT) Triplet  (F) Fermata

t: E E E E E E E E   E E E E E E E E   E E E E E E E E   E E E E E E E E 
E|-----------------|-----------------|-----------------|-------------------|
B|-----------------|-----------------|-----------------|-------------------|
G|-----------------|-----------------|-----------------|-------------------|
D|-----4-2-4---4---|-----4-2-4---4---|-----5-4-5---5---|-----5-4-5---5-----|
A|---0-------0---0-|---0-------0---0-|---1-------1---1-|---1-------1---1---|
D|-0---------------|-0---------------|-0---------------|-0-----------------|


t: E E E E E E E E   E E E E E E E E   E E E E E E E E   E E E E E E E E 
E|-----------------|-----------------|-----------------|-------------------|
B|-----------------|-----------------|-----------------|-------------------|
G|-----------------|-----------------|-----7---7---6---|-4---2---7---9-----|
D|-----5-4-5---5---|-----5-4-5---5---|-----------------|-------------------|
A|---4-------4---4-|---4-------4---4-|---5---5---5---4-|---2---0---5---7---|
D|-0---------------|-0---------------|-0---------------|-------------------|


t: E E E E E E E E   E E E E E E E E   E E TT T T TT T T TT T T   T T T T T T TT T TT TT T T 
E|-----------------|-----------------|--------------------------|----------------------------|
B|-----------------|-----------------|--------------------------|----------------------------|
G|-----------------|-----------------|-----11-----11-----11-----|-9-----7-----12------11-----|
D|-----4-2-4---4---|-----4-2-4---4---|--------0------0------0---|---0-----0------0-------0---|
A|---0-------0---0-|---0-------0---0-|---0------9------9------9-|-----7-----5------10------9-|
D|-0---------------|-0---------------|-0------------------------|----------------------------|


t: T T T T T T T T T T T T   T T T T T T H 
E|-------------------------|-----------------|
B|-------------------------|-----------------|
G|-9-----9-----9-----9-----|-9-----9---------|
D|---0-----0-----0-----0---|---0-----0-------|
A|-----7-----7-----7-----7-|-----7-----7-----|
D|-------------------------|-----------------|


t: X X X X E E E E E   E E E E E E E E   E E E E E E E E   E E E E E E E E 
E|-------------------|-----------------|-----------------|-----------------|
B|-------3---5---7---|-5---3---0---2---|-----3-2-3---3---|-----3-2-3---3-3-|
G|-----2-----4---6---|-4---2---0---2---|-----------------|-----------------|
D|---0-----0---0---0-|---0---0---0---2-|---4-------4---4-|---4-------4-----|
A|-------------------|-------------0---|-2---------------|-2---------------|
D|-0-----------------|---------5-------|-----------------|-----------------|


t: E T TT TT EE EE E E E E   E E E E E E F   S S S S S S E E E E E 
E|-------------------------|-------0---0---|-----------5---2---2---|
B|-----------11----7---3---|-5-7-8---7---5-|---------3-----3---3---|
G|--------10-------6---2---|-4-6-7---0---0-|-------2-----2---2---2-|
D|-----10-------10---0---0-|-----8---7---5-|-----0---------0---4---|
A|---0---------------------|---------------|---0-------------------|
D|-0-----------------------|---------------|-0---------------------|


t: E E E E E E E F   E E E E E EEE E F   E E EEE E F 
E|---2-3---2-------|-------------------|---------------||
B|-5---3-3---3-5---|-3-----3---------3-|-----------3---||
G|-0---3---2-------|-----0---------0---|---------2-----||
D|-5-----------5---|---3-------0h2-----|-----2/4-------||
A|---------------0-|-1-------3---------|---0-----------||
D|-----------------|-------------------|-0-------------||

Enjoy!  Any thoughts our questions, email: ieeewok01@gmail.com

Peace.
Suggest correction
Give kudos to tab author, rate the tab!
1 2 3 4 5
comments
print report bad tab
guest
You may want to rate the tab now too:
select rating
Wanna post a correction for this tab? Suggest correction