Oops, an error
Loading. Please wait.

Fly Tab

16 views 1 this week
no commentswrite comment
1 2 3 4 5
3 more votes to show rating
add to favorites
launch autoscroll
font size
0
reset
how to read this tab
guitar tuner
Autoscroll
slow
fast
+/-
esc
set tempo
stop
Help us to improve Ultimate-Guitar.com Take our survey!
×
Author
Difficulty
advanced
Michael Gungor – Fly


Tab by Avi Yaacov
Israel, October 2016



This is a tab of the solo, it’s a beautiful song. 
  The solo is pretty fast, watch out :)


        

~    Solo starts at 01:45    ~

e|--9h10p9p7--9-10-9-7-----|------------------------|------5---4----------|
B|---------------------10--|-------10-12-10---------|------------7-5------|
G|-------------------------|--9/11----------11-9-7--|--4h6---6-------7-6--|
D|-------------------------|------------------------|---------------------|
A|-------------------------|------------------------|---------------------|
E|-------------------------|------------------------|---------------------|


e|------7-4-5--|--14-19-16-17---14-12----------|
B|--7----------|-----------------------15-14---|  
G|----6--------|-------------------------------| 
D|-------------|-------------------------------|
A|-------------|-------------------------------|
E|-------------|-------------------------------|


e|--------5-7--4------|------9-9-7-7-5-5------5-7------5-7-5--------|
B|----7----------6-7--|----7----------------7--------5-------7-5----|
G|--6---6-------------|--7----------------6--------6-------------7--|
D|--------------------|---------------------------------------------|
A|--------------------|---------------------------------------------|
E|--------------------|---------------------------------------------|


e|------------------------------------------------5-5-----9-9--|
B|-------------------------------------5-----------------------|
G|----9-8-7-----------------------------------5/7-----7/9------|
D|--7--------------------4-7-6-----6-7-------------------------|
A|-----------------4-5-7---------------------------------------|
E|-------------5-7---------------------------------------------|


e|--7p5p4------------------------------------2-----2--------------------------|
B|--------7p5p4------------------------------2-----2-----------------------3--|
G|--------------6p4p2------------4----4------2---2----4p2p0----------0h2h4----|
D|--------------------6p4p2---/4---/5------4---4----------4p2p0—0h2h4---------|
A|----------------------------------------------------------------------------|
E|----------------------------------------------------------------------------|




Now to the EXPLOSIVE part   ~    Outro   ~   at 2:40


Power chords w. distortion:

   F#m   E/G#  A       B5 C#5  D  E/G#  C#5   F5 
e|-----------------|--------------------------------|
B|-----------------|--------------------------------|
G|-----------------|---4---6---7---------6----------|
D|--4----6-----7---|---4---6---7---6-----6-----3----|
A|--4----7-----7---|---2---4---5---7-----4-----3----|
E|--2----4-----5---|---------------4-----------1----|


As lead:
e|---------------------------------------|
B|---------------------------------------|
G|---------------------------------------|
D|---------------------------------------|
A|---------------2-4-5--------4----8-----|
E|---2--4---5------------4---------------|


End riff, at 3:52
e|-----------------------|
B|-----------------------|
G|--7-6-4----------------|
D|--------7-6-4---6-4----|
A|--------------7--------|
E|-----------------------|

Suggest correction
Give kudos to tab author, rate the tab!
1 2 3 4 5
comments
print report bad tab
guest
You may want to rate the tab now too:
select rating
Wanna post a correction for this tab? Suggest correction