Oops, an error
Loading. Please wait.

Rescue Tab

version 1
version 1

Whole song

2,366 views 1 this week
no commentswrite comment
1 2 3 4 5
3 more votes to show rating
add to favorites
launch autoscroll
font size
0
reset
how to read this tab
guitar tuner
Autoscroll
slow
fast
+/-
esc
set tempo
stop
Help us to improve Ultimate-Guitar.com Take our survey!
×
Author
Difficulty
intermediate
Rescue
(tab)

E1-----7------7--------7-----------------------|
B -------5------5---5----5---------------------|
G ---------7------7--------7--5--7--5--7-------|
D ----------------------------------------9--7-|
A ---------------------------------------------|
E6---------------------------------------------|

(play  until chorus)

Chorus
(chords)

           D                   A
I need you Jesus to come to my rescue
Em7              G
Where else can I go there’s no other
D                  A     Em7
Name by which I am saved capture me
   G
In grace I will follow you


E1-----------------------------------------------------|
B -----------------------------------------------------|
G ------11---9---7---4---9------11---9---7---4---9---7-|
D -----------------------------------------------------|
A -----------------------------------------------------|
E6-----------------------------------------------------|


E1-----7------7--------7-----------------------|
B -------5------5---5----5---------------------|
G ---------7------7--------7--5--7--5--7-------|
D ----------------------------------------9--7-|
A ---------------------------------------------|
E6---------------------------------------------|
Suggest correction
Give kudos to tab author, rate the tab!
1 2 3 4 5
comments
print report bad tab
guest
You may want to rate the tab now too:
select rating
Wanna post a correction for this tab? Suggest correction