Oops, an error
Loading. Please wait.

You Are Good tab

97 views 1 this week
no commentswrite comment
1 2 3 4 5
3 more votes to show rating
add to favorites
×
Save as Personal and add changes to this tab that will be seen only by you. Learn more ›
×
You can save this tab as Personal to edit and correct it or add notes. All changes will be seen only by you. Learn more »
launch autoscroll
font size
0
reset
how to read this tab
guitar tuner
edit
Autoscroll
slow
fast
+/-
esc
set tempo
stop
Author
Difficulty
About this tab version
From Battle Cry Worship from the front line (2005). Was this info helpful? Yes No
[Intro]
                             Are you ready  Ohh Ohh
e|-0--0--0--0-|-0-----------|-0-----------|-0-----------|
B|-5--4--3--2-|-5--9--3--10-|-5--9--3--10-|-5--9--3--10-|
G|-4--4--2--2-|-4--8--2---9-|-4--8--2---9-|-4--8--2---9-|
D|------------|-------------|-------------|-------------|
A|------------|-------------|-------------|-------------|
E|------------|-------------|-------------|-------------|

[Verse]

  E5  B11 D5  Dbm13-E 
e|-0---0---0---0-|
B|-0---0---0---0-|   E5                          Badd11            D5     Dbm13-E
G|-9---8---7---6-|   Lord, You are good and Your mercy endureth forever
D|-9---9---7---7-|   Lord, You are good and Your mercy endureth forever
A|-7---6---5---4-|
E|-0---0---0---0-|

  A2  B  C  D
e|------------|  A2                B
B|-0--4--5--7-|  People from every nation and tongue,
G|-6--4--5--7-|  C                  D
D|-7--4--5--7-|  From generation to generation
A|-7--2--3--5-|
E|-5----------|

[Chorus]

   E5  B4 D5  A2
e|-0---0---0--0-|    E5      B4   D5          A2
B|-0---0---0--0-| We worship You, Hallelujah, Hallelujah
G|-9---8---7--6-| We worship You, for who You are
D|-9---9---7--7-| We worship You, Hallelujah, Hallelujah
A|-7---9---5--7-| We worship You, for who You are
E|-0---7---0--5-|

[Interlude]

  E5 G5 A5   E5 D5 Db5  C5 B5 
e|---------|----------|------| 
B|---------|----------|------|         E5   G5   A5
G|---------|-9--7--6--|-5--4-| You are good, all the time,
D|-2--5--7-|-9--7--6--|-5--4-| 
A|-2--5--7-|-7--5--4--|-3--2-|         E5      D5    Db5   C5 B5 
E|-0--3--5-|----------|------| all the time, You are good.

            
            
Suggest correction
Creating personal tab
Creating personal tab
You can edit any tab online and save it as your Personal.

You can edit, replace or remove any tab part or add personal notes – all changes will be seen only by you.

Personal tabs can be accessed anytime from any device, even offline.
Learn more »
Give kudos to tab author, rate the tab!
1 2 3 4 5
comments
print report bad tab
guest
You may want to rate the tab now too:
select rating
Wanna post a correction for this tab? Suggest correction