Oops, an error
Loading. Please wait.

We Will Not Go Down Tab

version 1
version 1

Whole song

Interactive

6,898 views 24 this week
no commentswrite comment
1 2 3 4 5
3 more votes to show rating
add to favorites
launch autoscroll
font size
0
reset
how to read this tab
guitar tuner
×
Best way to learn
"We Will Not Go Down"
Autoscroll
slow
fast
+/-
esc
set tempo
stop
Author
Just tried to turn the chords into fingerstyle and turned out it's pretty good.
Enjoy! I'm sorry if there is some mistake, this is my first time making a tab.


Intro:

       Am     Am     Am     Am
e--------------------------------------------------------------------|
B------1------1-------1------1---------------------------------------|
G-----2-2----2-2-----2-2----2-2--------------------------------------|
D----2---2--2---2---2---2--2---2-------------------------------------|
A--0------0-------0------0------0------------------------------------|
E--------------------------------------------------------------------|


Verse:
       Am       C      G      Am      Am     C      G       Am
e--------------------------------------------------------------------|
B-------1------1-------0------1-------1------1-------0------1--------|
G------2-2----0-0-----0-0----2-2-----2-2----0-0-----0-0----2-2-------|
D-----2---2--2---2---0---0--2---2---2---2--2---2---0---0--2---2------|
A---0-------3--------------0------0-------3--------------0-----------|
E------------------3-----------------------------3-------------------|

        Dm      Am      Dm    Am     G      Am     C      E
e-------1------0------1------0-------3------0------0------0----------|
B--------------------------------------------------------------------|
G------2-2----2-2----2-2----2-2-----0-0----2-2----0-0----1-1---------|
D-----0---0--2---2--0---0--2---2---0---0--2---2--2---2--2---2--------|
A---0-------0------0------0-------------0-------3------2-------------|
E--------------------------------3-----------------------------------|

Chorus:
       F      C      Am     G      F     C      Am     G
e------1------0------0------3------1------0------0------3------------|
B--------------------------------------------------------------------|
G-----2-2----0-0----2-2----0-0----2-2----0-0----2-2----0-0-----------|
D----3---3--2---2--2---2--0---0--3---3--2---2--2---2--0---0----------|
A---0------3------0-------------0------3------0----------------------|
E------------------------3---------------------------3---------------|

       F      G      G      Am
e------1------3------3-----------------------------------------------|
B---------------------------1----------------------------------------|
G-----2-2----0-0----0-0----2-2---------------------------------------|
D----3---3--0---0--0---0--2---2--------------------------------------|
A---0--------------------0-----0-------------------------------------|
E----------3------3--------------------------------------------------|

and then start from the intro again.
Suggest correction
Give kudos to tab author, rate the tab!
1 2 3 4 5
comments
print report bad tab
guest
You may want to rate the tab now too:
select rating
Wanna post a correction for this tab? Suggest correction