Oops, an error
Loading. Please wait.

The Passenger Tab

229 views 3 this week
no commentswrite comment
1 2 3 4 5
3 more votes to show rating
add to favorites
launch autoscroll
font size
0
reset
how to read this tab
guitar tuner
Autoscroll
slow
fast
+/-
esc
set tempo
stop
Help us to improve Ultimate-Guitar.com Take our survey!
×
Author
Difficulty
Tuning
newg [tm] 45,805
novice
D A D G B E
----------------------------------------------------------------------------------------------------
                                Michael Hutchence - The Passenger
----------------------------------------------------------------------------------------------------

Album : ost "Batman Forever"
Tempo : 80
E-mail: gwendal.mollo@orange.fr
Tabbed by: newg    (http://profile.ultimate-guitar.com/newg/)


This a cover of Iggy pop song : The Passenger, of the ost "Batman Forever"




Main Guitar:

intro :

e|-----------------------------------------------|-----------------------------------------------|
B|-----------------------------------------------|-----------------------------------------------|
G|-----------------------------------------------|-----------------------------------------------|
D|-----------------------------------------------|-----------------------------------------------|
A|-------------6---------------------------------|--------------6--------------------------------|
D|-6--6-----6--------6-----------6--9--9--9--9---|--6--6-----6--------6-----2-----------4--------| x2


e|------|-------|-------|------|
B|------|-------|-------|------|
G|o-----|-------|-------|-----o|
D|o-----|-------|-------|-----o|
A|------|-------|-------|------|
D|-6----|--9----|--8----|--7---|    x2


Main Riff : 

e|-----------------------------------------------|-----------------------------------------------|
B|-----------------------------------------------|-----------------------------------------------|
G|-----------------------------------------------|-----------------------------------------------|
D|-----------------------------------------------|-----------------------------------------------|
A|-----------------------------------------------|-----------------------------------------------|
D|--6--6--6--6--6-----6-----6-----6-----9--------|--6--6--6--6--6-----6-----6-----6-----7-----4--|


e|-----------------------------------------------|-----------------------------------------------|
B|-----------------------------------------------|-----------------------------------------------|
G|-----------------------------------------------|-----------------------------------------------|
D|-----------------------------------------------|-----------------------------------------------|
A|-----------------------------------------------|-----------------------------------------------|
D|--6--6--6--6--6-----6-----6-----6-----11-------|--6--6--6--6--6-----6-----2-----------4--------|


 Play this all the song
Suggest correction
Give kudos to tab author, rate the tab!
1 2 3 4 5
comments
print report bad tab
guest
You may want to rate the tab now too:
select rating
Wanna post a correction for this tab? Suggest correction