Oops, an error
Loading. Please wait.

Al Capone Bass Tab

67 views 24 this week
no commentswrite comment
1 2 3 4 5
2 more votes to show rating
add to favorites
launch autoscroll
font size
0
reset
guitar tuner
Autoscroll
slow
fast
+/-
esc
set tempo
stop
Help us to improve Ultimate-Guitar.com Take our survey!
×
[Intro]
G|---------------------------------|---------------------------------|
D|---------------------------------|---------------------------------|
A|2---2-2-------2---4---4----------|5---5-5---2---5---4---4----------|
E|----------2----------------------|---------------------------------|

G|---------------------------------|---------------------------------|
D|---------------------------------|----------------------4----------|
A|2---2-2-------2---4---4----------|5---5-5---2---5---4--------------|
E|----------2----------------------|--------------------------2------|

G|---------------------------------|---------------------------------|
D|---------------------------------|---------------------------------|
A|2---2-2-------2---4---4----------|5---5-5---2---5---4---4----------|
E|----------2----------------------|---------------------------------|

G|---------------------------------|---------------------------------|
D|---------------------------------|---------------------------------|
A|2---2-2-------2---4---4----------|5---5-5---2---5---4---4----------|
E|----------2----------------------|---------------------------------|


[Verse 1]
G|---------------------------------|---------------------------------|
D|---------------------------------|---------------------------------|
A|2---2-2-------2---4---4----------|5---5-5---2---5---4---4----------|
E|----------2----------------------|---------------------------------|

G|---------------------------------|---------------------------------|
D|---------------------------------|----------------------4----------|
A|2---2-2-------2---4---4----------|5---5-5---2---5---4--------------|
E|----------2----------------------|--------------------------2------|

G|---------------------------------|---------------------------------|
D|---------------------------------|---------------------------------|
A|2---2-2-------2---4---4----------|5---5-5---2---5---4---4----------|
E|----------2----------------------|---------------------------------|

G|---------------------------------|---------------------------------|
D|---------------------------------|--------------------------4------|
A|2---2-2-------2---4---4----------|5---5-5---2---5---4---4----------|
E|----------2----------------------|---------------------------------|


[Pre-Chorus]
G|---------------------------------|---------------------------------|
D|---------------------------------|---------------------------------|
A|------------5--------------------|--------------5-------5----------|
E|3---3-3---------3---3------------|3---3-3---3-------3--3-----------|

G|---------------------------------|---------------------------------|
D|---------------------------------|---------------------------------|
A|------------5--------------------|4-------7----------------0-------|
E|3---3-3---------3---3------------|-----------------2---------------|

G|---------------------------------|
D|---------------------------------|
A|2--------------------------------|
E|----------------5----------------|


[Chorus]
G|---------------------------------|---------------------------------|
D|---------------------------------|---------------------------------|
A|----------5----------------------|2---2-2---5---2------------------|
E|3---3-3------3--5---5-5----------|------------------5-------5------|

G|---------------------------------|---------------------------------|
D|---------------------------------|---------------------------------|
A|----------5----------------------|2---2-2---5---2------------------|
E|3---3-3------3--5---5-5----------|------------------5-------5------|

G|---------------------------------|---------------------------------|
D|---------------------------------|---------------------------------|
A|----------5----------------------|2---2-2---5---2------------------|
E|3---3-3------3--5---5-5----------|------------------5-------5------|

G|---------------------------------|
D|---------------------------------|
A|----------5----------------------|
E|3---3-3------3--5---5-5----------|


[Verse 2]
G|---------------------------------|---------------------------------|
D|---------------------------------|---------------------------------|
A|2---2-2-------2---4---4----------|5---5-5---2---5---4---4----------|
E|----------2----------------------|---------------------------------|

G|---------------------------------|---------------------------------|
D|---------------------------------|----------------------4----------|
A|2---2-2-------2---4---4----------|5---5-5---2---5---4--------------|
E|----------2----------------------|--------------------------2------|

G|---------------------------------|---------------------------------|
D|---------------------------------|---------------------------------|
A|2---2-2-------2---4---4----------|5---5-5---2---5---4---4----------|
E|----------2----------------------|---------------------------------|

G|---------------------------------|---------------------------------|
D|---------------------------------|--------------------------4------|
A|2---2-2-------2---4---4----------|5---5-5---2---5---4---4----------|
E|----------2----------------------|---------------------------------|


[Pre-Chorus]
G|---------------------------------|---------------------------------|
D|---------------------------------|---------------------------------|
A|------------5--------------------|--------------5-------5----------|
E|3---3-3---------3---3------------|3---3-3---3-------3--3-----------|

G|---------------------------------|---------------------------------|
D|---------------------------------|---------------------------------|
A|------------5--------------------|4-------7----------------0-------|
E|3---3-3---------3---3------------|-----------------2---------------|

G|---------------------------------|
D|---------------------------------|
A|2--------------------------------|
E|----------------5----------------|


[Chorus]
G|---------------------------------|---------------------------------|
D|---------------------------------|---------------------------------|
A|----------5----------------------|2---2-2---5---2------------------|
E|3---3-3------3--5---5-5----------|------------------5-------5------|

G|---------------------------------|---------------------------------|
D|---------------------------------|---------------------------------|
A|----------5----------------------|2---2-2---5---2------------------|
E|3---3-3------3--5---5-5----------|------------------5-------5------|

G|---------------------------------|---------------------------------|
D|---------------------------------|---------------------------------|
A|----------5----------------------|2---2-2---5---2------------------|
E|3---3-3------3--5---5-5----------|------------------5-------5------|

G|---------------------------------|
D|---------------------------------|
A|----------5----------------------|
E|3---3-3------3--5---5-5----------|

G|---------------------------------|---------------------------------|
D|---------------------------------|---------------------------------|
A|---------------------------------|---------------------------------|
E|---------------------------------|---------------------------------|

G|---------------------------------|---------------------------------|
D|---------------------------------|---------------------------------|
A|---------------------------------|---------------------------------|
E|---------------------------------|3---3-3---------5---5-5----------|


[Solo]
G|---------------------------------|---------------------------------|
D|---------------------------------|---------------------------------|
A|2---2-2-------2---4---4----------|5---5-5---2---5---4---4----------|
E|----------2----------------------|---------------------------------|

G|---------------------------------|---------------------------------|
D|---------------------------------|----------------------4----------|
A|2---2-2-------2---4---4----------|5---5-5---2---5---4--------------|
E|----------2----------------------|---------------------------------|

G|---------------------------------|---------------------------------|
D|---------------------------------|---------------------------------|
A|2---2-2-------2---4---4----------|5---5-5---2---5---4---4----------|
E|----------2----------------------|---------------------------------|

G|---------------------------------|---------------------------------|
D|---------------------------------|--------------------------4------|
A|2---2-2-------2---4---4----------|5---5-5---2---5---4---4----------|
E|----------2----------------------|---------------------------------|


[Pre-Chorus]
G|---------------------------------|---------------------------------|
D|---------------------------------|---------------------------------|
A|------------5--------------------|--------------5-------5----------|
E|3---3-3---------3---3------------|3---3-3---3-------3--3-----------|

G|---------------------------------|---------------------------------|
D|---------------------------------|---------------------------------|
A|------------5--------------------|4-------7----------------0-------|
E|3---3-3---------3---3------------|-----------------2---------------|

G|---------------------------------|
D|---------------------------------|
A|2--------------------------------|
E|----------------5-------5--------|


[Chorus]
G|---------------------------------|---------------------------------|
D|---------------------------------|---------------------------------|
A|----------5----------------------|2---2-2---5---2------------------|
E|3---3-3------3--5---5-5----------|------------------5-------5------|

G|---------------------------------|---------------------------------|
D|---------------------------------|---------------------------------|
A|----------5----------------------|2---2-2---5---2------------------|
E|3---3-3------3--5---5-5----------|------------------5-------5------|

G|---------------------------------|---------------------------------|
D|---------------------------------|---------------------------------|
A|----------5----------------------|2---2-2---5---2------------------|
E|3---3-3------3--5---5-5----------|------------------5-------5------|

G|---------------------------------|---------------------------------|
D|---------------------------------|---------------------------------|
A|----------5----------------------|2---2-2---5---2------------------|
E|3---3-3------3--5---5-5----------|------------------5-------5------|

G|---------------------------------|---------------------------------|
D|---------------------------------|---------------------------------|
A|----------5----------------------|2---2-2---5---2------------------|
E|3---3-3------3--5---5-5----------|------------------5-------5------|

G|---------------------------------|---------------------------------|
D|---------------------------------|---------------------------------|
A|----------5----------------------|2---2-2---5---2------------------|
E|3---3-3------3--5---5-5----------|------------------5-------5------|

G|---------------------------------|---------------------------------|
D|---------------------------------|---------------------------------|
A|----------5----------------------|2---2-2---5---2------------------|
E|3---3-3------3--5---5-5----------|------------------5-------5------|

G|---------------------------------|
D|---------------------------------|
A|----------5----------------------|
E|3---3-3------3--5---5-5----------|


[Verse 3]
G|---------------------------------|---------------------------------|
D|---------------------------------|---------------------------------|
A|2---2-2-------2---4---4----------|5---5-5---2---5---4---4----------|
E|----------2----------------------|---------------------------------|

G|---------------------------------|---------------------------------|
D|---------------------------------|----------------------4----------|
A|2---2-2-------2---4---4----------|5---5-5---2---5---4--------------|
E|----------2----------------------|--------------------------2------|

G|---------------------------------|---------------------------------|
D|---------------------------------|---------------------------------|
A|2---2-2-------2---4---4----------|5---5-5---2---5---4---4----------|
E|----------2----------------------|---------------------------------|

G|---------------------------------|---------------------------------|
D|---------------------------------|--------------------------4------|
A|2---2-2-------2---4---4----------|5---5-5---2---5---4---4----------|
E|----------2----------------------|---------------------------------|


[Outro] (fade-out)
G|---------------------------------|---------------------------------|
D|---------------------------------|---------------------------------|
A|2---2-2-------2---4---4----------|5---5-5---2---5---4---4----------|
E|----------2----------------------|---------------------------------|

G|---------------------------------|---------------------------------|
D|---------------------------------|----------------------4----------|
A|2---2-2-------2---4---4----------|5---5-5---2---5---4--------------|
E|----------2----------------------|--------------------------2------|
Suggest correction
Give kudos to tab author, rate the tab!
1 2 3 4 5
comments
print report bad tab
guest
You may want to rate the tab now too:
select rating
Wanna post a correction for this tab? Suggest correction