Oops, an error
Loading. Please wait.

Bad Bass Tab

version 1
version 1

Whole song

29,018 views 90 this week
5 commentsread comments
1 2 3 4 5
poor
x 8
add to favorites
launch autoscroll
font size
0
reset
guitar tuner
Tab Pro tools
  • play this tab
  • loop segment
  • change instrument
  • show fretboard
  • metronome
Autoscroll
slow
fast
+/-
esc
set tempo
stop
Song/CD: Bad
Band/Performed by: Michael Jackson
Tabbed by/date:Vick garbugli/00/06/24
Tuning/others: standard



G:--------------------------------
D:----------3-4-5--------33-4-5---
A:----3--6--------3--66-----------
E:--------------------------------
comments
print report bad tab
5 comments total. Showing first comments. show 1 bad comment
+3 reply
TruBassMaster wrote on June 20 2008, 02:29 pm

Accualy you both are wrong its played starting on A on a minor scale so should goo
G:----------------------------------
D:----------------------------------
A:----------5-6-7-------5-6-7------
E:----5--8---------5-8--------------

-1 reply
Natsuka wrote on June 27 2009, 06:37 am

not really , i think the correct tab is :

G:----------------------------------
D:----------------------------------
A:----------6-7-8--------6-7-8------
E:----6--9---------6--9-------------

It sound exact with the music so ... ^^

I want to post or [tab]
guest
You may want to rate the tab now too:
select rating
Please do not post tabs as comments. Select "correction" instead!