Oops, an error
Loading. Please wait.

Bad Bass Tab

version 1
version 1

Whole song

30,955 views 27 this week
5 commentsread comments
1 2 3 4 5
x 8
add to favorites
launch autoscroll
font size
0
reset
guitar tuner
×
Best way to learn
"Bad"
Autoscroll
slow
fast
+/-
esc
set tempo
stop
Song/CD: Bad
Band/Performed by:  Michael Jackson
Tabbed by/date:     Vick garbugli/00/06/24
Tuning/others:      standard

[Main Riff]

G|----------------------------------|
D|----------------------------------|
A|----------6-7-8--------6-7-8------|
E|----6--9---------6--9-------------|

G|----------------------------------|
D|----------------------------------|
A|----------6-7-8--------6-7-8------|
E|----6--9---------6--9-------------|
Suggest correction
comments
print report bad tab
5 comments total. Showing first comments.
+3 reply
TruBassMaster 52 Jun 20, 2008 10:29 AM

Accualy you both are wrong its played starting on A on a minor scale so should goo
G:----------------------------------
D:----------------------------------
A:----------5-6-7-------5-6-7------
E:----5--8---------5-8--------------

-1 reply
Natsuka 496 Jun 27, 2009 02:37 AM

not really , i think the correct tab is :

G:----------------------------------
D:----------------------------------
A:----------6-7-8--------6-7-8------
E:----6--9---------6--9-------------

It sound exact with the music so ... ^^

0 reply
ipodman24 10 Jun 21, 2011 12:16 PM

Get an ear hippy:[ !!!!

guest
You may want to rate the tab now too:
select rating
Wanna post a correction for this tab? Suggest correction