Oops, an error
Loading. Please wait.

Bad Bass Tab

version 2
version 2

Whole song

30,772 views 87 this week
no commentswrite comment
1 2 3 4 5
accurate
x 14
add to favorites
launch autoscroll
font size
0
reset
guitar tuner
Tab Pro tools
  • play this tab
  • loop segment
  • change instrument
  • show fretboard
  • metronome
Autoscroll
slow
fast
+/-
esc
set tempo
stop
Contributor
Bad – Michael Jackson


Verse: (play how ever many times)
G|------------------------------------------------------------------------|
D|-----------0----1-2-------------0----1-2--------------------------------|
A|0----3------------------0--3--------------------------------------------|
E|------------------------------------------------------------------------|

Pre-Chorus: (doesn’t sound right but listen closely and you can hear it)
G|------------------------------------------------------------------------|
D|-----2-0------------2-0-------------2-0-----------------------0h2p0-----|
A|3--------------3---------------3--------------------------------------3-|
E|---------------------------------------------3----3----3----------------|

Chorus:
G|------------------------------------------------------------------------|
D|-----------0----1-2-------------0-----0---------------------------------|
A|0----3------------------0--3-------3-----3------------------------------|
E|------------------------------------------------------------------------|

G|------------------------------------------------------------------------|
D|-----------0----1-2-------------0—0h2p0---------------------------------|
A|0----3------------------0--3--------------------------------------------|
E|------------------------------------------------------------------------|

G|------------------------------------------------------------------------|
D|-----------0----1-2-------------0-----0---------------------------------|
A|0----3------------------0--3-------3-----3------------------------------|
E|------------------------------------------------------------------------|

G|------------------------------------------------------------------------|
D|-----------0----1-2-----------------------------------------------------|
A|0----3------------------0--3--------------------------------------------|
E|------------------------------------------------------------------------|

That’s pretty much it but when playing the outro chorus it varies when doing the little 
fills. Comment and rate please.
comments
print report bad tab
I want to post or [tab]
guest
You may want to rate the tab now too:
select rating
Please do not post tabs as comments. Select "correction" instead!