Oops, an error
Loading. Please wait.

Bad Bass

version 3
version 3

Whole song

Interactive

461 views 12 this week
no commentswrite comment
1 2 3 4 5
2 more votes to show rating
add to favorites
×
Save as Personal and add changes to this tab that will be seen only by you. Learn more ›
×
You can save this tab as Personal to edit and correct it or add notes. All changes will be seen only by you. Learn more »
save as personal
new!
launch autoscroll
font size
0
reset
guitar tuner
Autoscroll
slow
fast
+/-
esc
set tempo
stop
-------------------------------------------------------------------------------
                             Bad - Michael Jackson
-------------------------------------------------------------------------------
Tabbed by: NFL
E-mail: -

Tuning: Standard

Main Riff :

G|---------------------------------------------------------------------------|
D|---------------------------------------------------------------------------|
A|-----------5--6-7---------------------5--6-7-------------------------------|
E|----5---8----------------5------8------------------------------------------|

Bridge :

                    Well they say the sky's the limit....


G|---------------------------------------------------------------------------|
D|---------------------------------------------------------------------------|
A|--------------------3-----------6----------------5-------------------------|
E|---------------------------------------------------------------------------|
                     
                      And to me that's really true
          

G|---------------------------------------------------------------------------|
D|---------------------------------------------------------------------------|
A|--------------------3-----------6----------------5-------------------------|
E|---------------------------------------------------------------------------|

                      But my friend you have seen nothing


G|---------------------------------------------------------------------------|
D|---------------------------------------------------------------------------|
A|--------------------3-----------6----------------5-------------------------|
E|---------------------------------------------------------------------------|


                      Just wait 'til I get through...


G|---------------------------------------------------------------------------|
D|---------------------------------------------------------------------------|
A|---------------------------------------------------------------------------|
E|--------------------------0-----0-----0-----0------------------------------|



*Use the main riff the whole song except at the bridge
Suggest correction
Give kudos to tab author, rate the tab!
1 2 3 4 5
comments
print report bad tab
guest
You may want to rate the tab now too:
select rating
Wanna post a correction for this tab? Suggest correction