Oops, an error
Loading. Please wait.
174,054 views 60 this week
8 commentsread comments
1 2 3 4 5
x 13
add to favorites
launch autoscroll
font size
0
reset
guitar tuner
backing track
0:00
0:00
Autoscroll
slow
fast
+/-
esc
set tempo
stop
Author
Tuning
D A D G
Drop D Tuning

[Intro Riff]

G|--------------------------|
D|--------------------------|
A|--------------------------|
D|--5--5--3--3--5--5--0-----|


[Chorus Riff]

G|------------------------------------------------------|
D|-----------4--1--3-------------------4--1--3----------|
A|--------------------4-4--4--------------------4-4-----|
D|--2--5--7-------------------2--5--7-------------------|


[Verse Riff]

G|--------------------------------------------------------------------|
D|--------------------------------------------------------------------|
A|--6-6-6---4-4-4---6-6-6---4-4-4---2-2-2---4-4-4---6-6-6---4-4-4-----|
D|--------------------------------------------------------------------|


[Interlude Riff]

G|--------------------|
D|--------------------|
A|--6-6-6---6-6-6-----|
D|--------------------|

Order of play:
Intro Riff x1
Chorus Riff x2
Verse Riff x2
Chorus Riff x3
Verse Riff x2
Chorus Riff x4
Interlude Riff x8
Verse Riff x2
Chorus Riff until song ends
Suggest correction
comments
print report bad tab
8 comments total. Showing first comments.
0 reply
Apitamebasstim 10 Apr 06, 2002 07:00 PM

GREAT JOB!!! I Look Forward to more tabs from you!

0 reply
bradh2414 30 Mar 03, 2009 01:00 PM

this is the best tab out there. except i think the intro is a little off. but other than that...NICE JOB!

0 reply
bradh2414 30 Mar 03, 2009 01:01 PM

sorry not the intro the chorus part

guest
You may want to rate the tab now too:
select rating
Wanna post a correction for this tab? Suggest correction