Oops, an error
Loading. Please wait.

Beat It Tab

version 2
81,923 views 27 this week
12 commentsread comments
1 2 3 4 5
worth learning
x 5
add to favorites
launch autoscroll
font size
0
reset
how to read this tab
guitar tuner
Autoscroll
slow
fast
+/-
esc
set tempo
stop
Help us to improve Ultimate-Guitar.com Take our survey!
×
Author
Depress bar before hitting note*

e|-----------------------------H13Po9-FT14Po9-H13-FT14Po14Po13Po11-9---------|
B|---------------------------------------------------------------------------|
G|--*3--6-(FT13)--8-FT13-----------------------------------------------------|
D|---------------------------------------------------------------------------|
A|---------------------------------------------------------------------------|
E|---------------------------------------------------------------------------|

e|-H13-FT14-Po14Po13Po11-9-X3------------------------------------------------|
B|------------------------------H13-FT14-Po14-Po13-Po11-9-X3---11--12--~11---|
G|---------------------------------------------------------------------------|
D|---------------------------------------------------------------------------|
A|---------------------------------------------------------------------------|
E|---------------------------------------------------------------------------|

e|-------------11-18-14-11---11------------11------------11--------11--------|
B|-11-18-14-18------------18---18-14-11-14---18-14-11-14---18-14-11---11-----|
G|---------------------------------------------------------------------------|
D|---------------------------------------------------------------------------|
A|---------------------------------------------------------------------------|
E|---------------------------------------------------------------------------|
                   finger tap 15 and drag along up neck fast
e|---------------------------------------------------------------------------|
B|----------------b+rb14(16)Po11-FT15/--h14po11-h14po11----------------------|
G|-b13(15)-13Po11------------------------------------------------------------|
D|---------------------------------------------------------------------------|
A|---------------------------------------------------------------------------|
E|---------------------------------------------------------------------------|
        When pull of from 11 to 0 depress the whammy bar

                                   Use the whammy bar here ^

e|------------------------------------------------------------------------------|
B|------------------------------------------------------------------------------|
G|----b+rb13(15)-13Po11Po0---b8(10)Po6---h8^6-h8^6-8Po6-------------------------|
D|------------------------------------------------------------------------------|
A|------------------------------------------------------------------------------|
E|------------------------------------------------------------------------------|

As whammying down also pulloff

e|---------------------------------11----------------------------------------------|
B|--4^Po2-h4^Po2-h4^Po2---------------~b14(16)-------------------------------------|
G|-----------------------AH3----8/12-----------------------------------------------|
D|---------------------------------------------------------------------------------|
A|---------------------------------------------------------------------------------|
E|---------------------------------------------------------------------------------|

e|-----11-----b14(16)-11----------------------------------------FT14Po11Po7----|
B|--------11------------11--------------------------FT14Po12Po7----------------|
G|-------------------------11-b+rb13(15)-13Po11-~13----------------------------|
D|-----------------------------------------------------------------------------|
A|-----------------------------------------------------------------------------|
E|-----------------------------------------------------------------------------|

e|-------------FT14Po11Po7--------------FT14Po11Po7----Ft14Po9-Ft14Po9-------|
B|-FT14Po11Po6-------------FT14Po11Po7---------------------------------------|
G|---------------------------------------------------------------------------|
D|---------------------------------------------------------------------------|
A|---------------------------------------------------------------------------|
E|---------------------------------------------------------------------------|

e|-Ft14Po9---11-11-11-11-13-13-13-13-14-14-14-14-16-16-16-16-18-18-18-21-21--|
B|---------------------------------------------------------------------------|
G|---------------------------------------------------------------------------|
D|---------------------------------------------------------------------------|
A|---------------------------------------------------------------------------|
E|---------------------------------------------------------------------------|


e|-21-21-23-23-23-~23-(23)---------------------------------------------------|
B|---------------------------------------------------------------------------|
G|---------------------------------------------------------------------------|
D|-------------------------------------------------1--4--1--3--1-------------|
A|-----------------------------------------------------------------4--4------|
E|-----------------------------19\0----------0--2----------------------------|

            Let ring at the end
e|---------------------------------------------------------------------------|
B|---------------------------------------------------------------------------|
G|---6-6/--8-----------------------------------------------------------------|
D|---6-6/--8-----------------------------------------------------------------|
A|---4-4/--6-----------------------------------------------------------------|
E|---------------------------------------------------------------------------|

| Ah aRTIFICAIL hARMONIC
| b  Bend up
| rb reverse bend
| FT Finger tap (hammer on with right hand)
| /  slide up
| \  slide down
| h  hammer-on
| po pull-off
| ~  vibrato
| +  harmonic
| x  Mute note
===============================================================================
Suggest correction
comments
print report bad tab
12 comments total. Showing first comments.
0 reply
VanHayden 10 wrote on July 1 2009, 10:05 pm

"If you play the backing track you find it is one octave higher, therefore instead of
on my one a 9 you'l play a 10 etc This tab is based on the beat it song not the backing
that you can download which is slightly higher Octave. Rate & Enjoy!!"
one fret = one semitone
life fail
you piece of shit

+1 reply
LJHarris 123 wrote on July 3 2009, 06:25 pm

Thanks for throwing that out there.. glad you liked it!!!! As always People rate and comment!!!! hahahaha

-1 reply
cjdabest 355 wrote on July 4 2009, 04:10 am

great, but can you make the "real" version, the one in Eb

guest
You may want to rate the tab now too:
select rating
Please do not post tabs as comments. Select "correction" instead!