Oops, an error
Loading. Please wait.
2,286,760 views 3,156 this week
117 commentsread comments
1 2 3 4 5
x 504
add to favorites
launch autoscroll
font size
0
reset
how to read this tab
guitar tuner
backing track
0:00
0:00
×
Best way to learn
"Beat It"
Autoscroll
slow
fast
+/-
esc
set tempo
stop
The opening and chorus guitar riff, doubled by the bass:

Guitar tuned 1/2 step down (D# G# C# F# A# D#)


[Main Riff/Intro]

D#|-----|-----------------|-----------------|
G#|-----|-----------------|-----------------|
C#|-----|-----------------|-----------------|
F#|-----|--------5-2----4-|---2-------------|
A#|-----|------2----------|-----5---5-------|
D#|---0-|(0)-3------------|---------------0-|

D#|-----------------|-------------|
G#|-----------------|-------------|
C#|-----------------|-------------|
F#|--------5-2----4-|---2---------|
A#|------2----------|-----5-------|
D#|(0)-3------------|-------------|


[Intro Lead Riff]
                                                               
D#|-----------------------------------|-----------------------|
G#|-----------------------------------|-----------------------|
C#|--x---x-x-12--x-x-12---9-------x-x-|-11---x-x-11---7-------|
F#|--x---x-x-12--x-x-12---9-------x-x-|-12---x-x-12---7-------|
A#|-----------------------------------|-----------------------|
D#|-----------------------------------|-----------------------|


[Verse Riff]

    E5          D5              
D#|------------------|-------------|
G#|------------------|-------------|
C#|--x-9-9---9---x-7-|-7---7-------|
F#|--x-9-9---9---x-7-|-7---7-------|
A#|--x-7-7---7---x-5-|-5---5-------|
D#|------------------|-------------|

        E5              D5
D#|-----------------|-------------|
G#|-----------------|-------------|
C#|-x-9-9---9---x-7-|-7---7-------|
F#|-x-9-9---9---x-7-|-7---7-------|
A#|-x-7-7---7---x-5-|-5---5-------|
D#|-----------------|-------------|

   C5              D5           
D#|-----------------|-------------|
G#|-----------------|-------------|
C#|-x-5-5---5---x-7-|-7---7-------|
F#|-x-5-5---5---x-7-|-7---7-------|
A#|-x-3-3---3---x-5-|-5---5-------|
D#|-----------------|-------------|

             E5      D5
D#|-----------------|------------------|
G#|-----------------|------------------|
C#|-x-9-9---9---x-7-|-7---7------------|
F#|-x-9-9---9---x-7-|-7---7------------|
A#|-x-7-7---7---x-5-|-5---5------------|
D#|-----------------|------------------|


*********************************************

|(n)   Ghost note
| x    dead note

*********************************************
Suggest correction
comments
print report bad tab
117 comments total. Showing first comments.
+32 reply
andrewbiles 4,755 May 21, 2004 08:00 PM

What you have is all correct, but it's tuned down about 1/2 a step.

+4 reply
a7xtrivium 31 May 19, 2006 09:27 AM

It's like this:

e:-----|-----------------|-----------------|-----------------|-------------||
B:-----|-----------------|-----------------|-----------------|-------------||
G:-----|-----------------|-----------------|-----------------|-------------||
D:-----|-------5-2---2h4-|---2-------------|-------5-2-----4-|---2---------||
A:-----|-----2-----------|-----5---5-------|-----2-----------|-----5-------||
E:--0--|---3-------------|---------------0-|---3-------------|-------------||

+11 reply
The Casualty 107 Jan 25, 2007 10:43 PM

No solo?

guest
You may want to rate the tab now too:
select rating
Wanna post a correction for this tab? Suggest correction