Oops, an error
Loading. Please wait.

Beat It Tab

version 1
2,116,048 views 2,541 this week
104 commentsread comments
1 2 3 4 5
accurate
x 386
add to favorites
launch autoscroll
font size
0
reset
how to read this tab
guitar tuner
Tab Pro tools
  • play this tab
  • loop segment
  • change instrument
  • show fretboard
  • metronome
×
Best way to learn
"Beat It"
Autoscroll
slow
fast
+/-
esc
set tempo
stop
Contributor
The opening and chorus guitar riff, doubled by the bass:

Guitar tuned 1/2 step down (D# G# C# F# A# D#)
e:-----|-----------------|-----------------||
B:-----|-----------------|-----------------||
G:-----|-----------------|-----------------||
D:-----|-------5-2-----4-|---2-------------||
A:-----|-----2-----------|-----5---5-------||
E:--0--|---3-------------|---------------0-||

-----------------|-------------||
-----------------|-------------||
-----------------|-------------||
-------5-2-----4-|---2---------||
-----2-----------|-----5-------||
---3-------------|-------------||


                                                               
e:-----------------------------------|-----------------------||
B:-----------------------------------|-----------------------||
G:--x---x-x-12--x-x-12---9-------x-x-|-11---x-x-11---7-------||
D:--x---x-x-12--x-x-12---9-------x-x-|-12---x-x-12---7-------||
A:-----------------------------------|-----------------------||
E:-----------------------------------|-----------------------||


Verse:

    E5          D5              
e:------------------|-------------||
B:------------------|-------------||
G:--x-9-9---9---x-7-|-7---7-------||
D:--x-9-9---9---x-7-|-7---7-------||
A:--x-7-7---7---x-5-|-5---5-------||
E:------------------|-------------||

        E5              D5|
-----------------|-------------|
-----------------|-------------|
-x-9-9---9---x-7-|-7---7-------|
-x-9-9---9---x-7-|-7---7-------|
-x-7-7---7---x-5-|-5---5-------|
-----------------|-------------|



   C5              D5           
e:-----------------|-------------||
B:-----------------|-------------||
G:-x-5-5---5---x-7-|-7---7-------||
D:-x-5-5---5---x-7-|-7---7-------||
A:-x-3-3---3---x-5-|-5---5-------||
E:-----------------|-------------||

             E5      D5|
-----------------|------------------||
-----------------|------------------||
-x-9-9---9---x-7-|-7---7------------||
-x-9-9---9---x-7-|-7---7------------||
-x-7-7---7---x-5-|-5---5------------||
-----------------|---------15\------||
comments
print report bad tab
104 comments total. Showing first comments. show 2 bad comments
+29 reply
andrewbiles wrote on May 22 2004, 12:00 am

What you have is all correct, but it's tuned down about 1/2 a step.

I want to post or [tab]
guest
You may want to rate the tab now too:
select rating
Please do not post tabs as comments. Select "correction" instead!