Oops, an error
Loading. Please wait.

Beat It Tab

version 6
26,554 views 33 this week
no commentswrite comment
1 2 3 4 5
accurate
x 6
add to favorites
launch autoscroll
font size
0
reset
how to read this tab
guitar tuner
Autoscroll
slow
fast
+/-
esc
set tempo
stop
Help us to improve Ultimate-Guitar.com Take our survey!
×
Author
#----------------------------------PLEASE NOTE--------------------------------#
#This file is the author's own work and represents their interpretation of the#
#song. You may only use this file for private study, scholarship, or research.#
#-----------------------------------------------------------------------------#
#-- File created with Instab - http://www.pconline.com/~smcarey/instab.html --#
#-----------------------------------------------------------------------------#

Author/Artist: Michael Jackson
Title: Beat It

r release bend
p.m. palm mute
h hammer on
p pull off
v vibrato
() Bass



Tuning (eb A D G B E), (eb, D) Down ~ 10%
Live 1/2 Step Down Tuning (eb ab db gb bb eb)
Key: (E + D) -> (E + A) or (D + C#)



----|-------------------------------------------------------|
----|-------------------------------------------------------|
----|-------------------------------------------------------|
----|-------------------------------------------------------|
----|-----------9-6--6/8-6-------------------9-6--6/8-6-----|
----|-0----3--7------------10--10---0---3--7------------10--|
                                                                              

  Intro/Chorus                                   



----|-----------------------------------------------------|--|
----|-----------------------------------------------------|--|
----|-x-x-x-x-x-x-x-11--x-x-11--8---x-x-10--x-x-10--6--\--|--|
----|-x-x-x-x-x-x-x-11--x-x-11--8---x-x-11--x-x-11--6--\--|2x|
----|-----------------------------------------------------|--|
----|-----------------------------------------------------|--|
  

  Intro 





----|-----------------------|--|-----------------------|
----|-----------------------|--|-----------------------|
----|-----------------------|--|-----------------------|
----|-----------------------|2x|-----------------------|
----|-13-13--13--11-11--11--|--|-9--9---9---11-11--11--|
----|----12--12-----10--10--|--|----8---8------10--10--|
  

  Verse                                                                            
                                                               



----|----------------------|
----|----------------------|
----|----------------------|
----|----------------------|
----|----------------------|
----|(0-0--0----0-0--0)----|
 

  Interlude



----|----------------------|
----|----------------------|
----|-x-x-11--x-x-11--8--\-|
----|-x-x-11--x-x-11--8--\-|
----|----------------------|
----|----------------------|
 
 
  Interlude





---|---------------16-b17r16-b17r16-b17-16-----------------13-11-11h13-11-----|
---|---------------------------------------5-v-v--------------------------14--|
---|--------------------------------------------------------------------------|
---|------8vv/11vv------------------------------------------------------------|
---|-----------------------------------------------18/20----------------------|
---|-3-/----------------------------------------------------------------------|
  

     Solo Live Version 1/2 Step Down Tuning




-----11h13-11-------11h13-----------------------------------------------------|
-13-----------14-13-------14-11--12brp13p11--14brp13p11-12-11-11--12--11v/----|
------------------------------------------------------------------------------|
------------------------------------------------------------------------------|
------------------------------------------------------------------------------|
------------------------------------------------------------------------------|




--------------18-14-11-13-11-13-11----------11h13----------13p11----11--------|
-11-13-14--16----------------------11-14-11-------11-14-11-------11----11-----|
------------------------------------------------------------------------------|
------------------------------------------------------------------------------|
------------------------------------------------------------------------------|
------------------------------------------------------------------------------|




------------------------------------------------------------------------------|
---9b10r9-9b10-7-10b11r10--10-11-13/--16p14-14-16p14-10b-11-r10-9-7-----------|
------------------------------------------------------------------------------|
--------------------------------------------------------------------4-b-5-r-4-|
------------------------------------------------------------------------------|
------------------------------------------------------------------------------|





-----21b22r21---------------------------------------------------------7/21br--|
--------------------------------2/4-4-2---2-2/4-2---2b/4-2---2b/4-2-----------|
----------------------------------------3---------3--------3--------3---------|
-4-/--------------------------------------------------------------------------|
--------------16-18-16/18-16v\------------------------------------------------|
------------------------------------------------------------------------------|





-----11-8/11-11-9-15b16v-11---------------------------------14----------------|
----------------------------10-9b10vv-9p7-9-v-v-v\-16p14-14----16p14-14-16-14-|
-6/8--------------------------------------------------------------------------|
------------------------------------------------------------------------------|
------------------------------------------------------------------------------|
------------------------------------------------------------------------------|




-14-------------------------------14--------9h11p9h11p9b10----------10b11v-v--|
----16-16p14----16-16p14----14-14----16p14\-----------------------0-----------|
-------------16----------16---------------------------------------0-----------|
------------------------------------------------------------------------------|
------------------------------------------------------------14/18-------------|
------------------------------------------------------------------------------|




-v-11-11-11r10-12-12-12-12-12-12-12-15-15-15-15-15-15-15-15-17-17-17-17-17-17-|
------------------------------------------------------------------------------|
------------------------------------------------------------------------------|
------------------------------------------------------------------------------|
------------------------------------------------------------------------------|
------------------------------------------------------------------------------|




-17-17-19-19-19-19-19-19-19-19-20b21-21-21-21-21-21-21-21-21b22-22-22-22-22---|
------------------------------------------------------------------------------|
------------------------------------------------------------------------------|
------------------------------------------------------------------------------|
------------------------------------------------------------------------------|
------------------------------------------------------------------------------|





-22-22r20--21-21-21-----------|-----------------------------------------------|
------------------------------|-----------------------------------------------|
------------------------------|-----------------------------------------------|
------------------------------|-----------------------------------------------|
--------------------17-\------|-----------------------------------------------|
------------------------------|-----------------------------------------------|
Suggest correction
comments
print report bad tab
guest
You may want to rate the tab now too:
select rating
Please do not post tabs as comments. Select "correction" instead!