Oops, an error
Loading. Please wait.

Billie Jean Tab

version 2
version 2

Acoustic

Whole song

Interactive

23,483 views 102 this week
no commentswrite comment
1 2 3 4 5
x 7
add to favorites
launch autoscroll
font size
0
reset
how to read this tab
guitar tuner
Autoscroll
slow
fast
+/-
esc
set tempo
stop
Help us to improve Ultimate-Guitar.com Take our survey!
×
Author
Billie Jean - Michael Jackson - BASIC Arrangement played in the key of Bm.

E|--------------------------------|--------------------------------|
B|--------------------------------|--------------------------------|
G|--------------------------------|--------------------------------|
D|--------------------------------|--------------------------------|
A|-2-------0---2---0--------------|-2-------0---2---0--------------|
E|-----2---------------2---0---2--|-----2---------------2---0---2--|

E|--------------------------------|--------------------------------|
B|--------------------------------|--------------------------------|
G|--------------------------------|--------------------------------|
D|--------------------------------|--------------------------------|
A|-2-------0---2---0--------------|-2-------0---2---0--------------|
E|-----2---------------2---0---2--|-----2---------------2---0---2--|

E|--------------------------------|--------------------------------|
B|-0-----------2------------------|-3-----------2------------------|
G|-2-----------2------------------|-2-----------2------------------|
D|--------------------------------|-0------------------------------|
A|-2-------0---2---0--------------|-2-------0---2---0--------------|
E|-----2---------------2---0---2--|-----2---------------2---0---2--|

E|--------------------------------|--------------------------------|
B|-0-----------2------------------|-3-----------2------------------|
G|-2-----------2------------------|-2-----------2------------------|
D|--------------------------------|-0------------------------------|
A|-2-------0---2---0--------------|-2-------0---2---0--------------|
E|-----2---------------2---0---2--|-----2---------------2---0---2--|

E|---------2---2---2--------------|-----2-------------------2------|
B|---------3---------5-3-------5--|-3---------5---3-5---3----------|
G|---------4----------------------|--------------------------------|
D|--------------------------------|--------------------------------|
A|-2-------0---2---0--------------|-2-------0---2---0--------------|
E|-----2---------------2---0---2--|-----2---------------2---0---2--|

E|-----2---2---2---2--------------|-----2--------------------------|
B|-----3-------------5-3-------5--|-3-----------5-------3-------2--|
G|-----4--------------------------|--------------------------------|
D|--------------------------------|--------------------------------|
A|-2-------0---2---0--------------|-2-------0---2---0--------------|
E|-----2---------------2---0---2--|-----2---------------2---0---2--|

E|--------------------------------|--------------------------------|
B|-0---------------------------0--|-------------0---------------0--|
G|-------------------------7-7----|-------7-7-------------7---7----|
D|--------------------------------|--------------------------------|
A|-7-------5---7---5--------------|-7-------5---7---5--------------|
E|-----7---------------7---5---7--|-----7---------------7---5---7--|

E|--------------------------------|--------------------------------|
B|--------------------------------|--------------------------------|
G|--------------------------------|--------------------------------|
D|--------------------------------|--------------------------------|
A|-2-------0---2---0--------------|-2-------0---2---0--------------|
E|-----2---------------2---0---2--|-----2---------------2---0---2--|

E|---------2---2---2--------------|-----2-------------------2------|
B|---------3---------5-3-------5--|-3---------5---3-5---3----------|
G|---------4----------------------|--------------------------------|
D|--------------------------------|--------------------------------|
A|-2-------0---2---0--------------|-2-------0---2---0--------------|
E|-----2---------------2---0---2--|-----2---------------2---0---2--|

E|-----2---2---2---2--------------|-----2--------------------------|
B|-----3-------------5-3-------5--|-3-----------5-------3-------2--|
G|-----4--------------------------|--------------------------------|
D|--------------------------------|--------------------------------|
A|-2-------0---2---0--------------|-2-------0---2---0--------------|
E|-----2---------------2---0---2--|-----2---------------2---0---2--|

E|--------------------------------|--------------------------------|
B|-0---------------------------0--|-------------0---------------0--|
G|-------------------------7-7----|-------7-7-------------7---7----|
D|--------------------------------|--------------------------------|
A|-7-------5---7---5--------------|-7-------5---7---5--------------|
E|-----7---------------7---5---7--|-----7---------------7---5---7--|

E|--------------------------------|-------------0------------------|
B|--------------------------------|---------3-----------3-------2--|
G|--------------------------------|-----4--------------------------|
D|--------------------------------|--------------------------------|
A|-2-------0---2---0--------------|-2-------0---2---0--------------|
E|-----2---------------2---0---2--|-----2---------------2---0---2--|

E|--------------------------------|--------------------------------|
B|-0-------------------0-----0---8|-----7---------------0----------|
G|--------------------------------|-----------7---7----------------|
D|--------------------------------|-----------------------------5--|
A|-7-------5---7---5--------------|-7-------5---7---5--------------|
E|-----7---------------7---5---7--|-----7---------------7---5---7--|

E|--------------------------------|--------------------------------|
B|---------------------5-----3---0|-3---5-------3---0-3------------|
G|--------------------------------|--------------------------------|
D|-4------------------------------|--------------------------------|
A|-2-------0---2---0--------------|-2-------0---2---0--------------|
E|-----2---------------2---0---2--|-----2---------------2---0---2--|

E|--------------------------------|--------------------------------|
B|-0-0---0-----0-------3-------0--|-3------------------------------|
G|-0-0---0---2-----------------2--|-4-4---4---2-4-----2---------4--|
D|-0-0---0---0-----------------0--|-4-4---4---4-4-------4-------4--|
A|--------------------------------|-2-----------2---------------2--|
E|-3---------3-----------------3--|--------------------------------|

E|--------------------------------|-------------2-----------0------|
B|-0-0-0-------0---0---3-------0--|---------0---0-------------3----|
G|-----0---------2-------------2--|-------2-----2------------------|
D|-----------------------------0--|-------0------------------------|
A|--------------------------------|-2-----------2------------------|
E|-3-----------3------------------|--------------------------------|

E|--------------------------------|--------------------------------|
B|-0-0---0-----0-------3-------0--|-3------------------------------|
G|-0-0---0---2-----------------2--|-4-4---4---2-4-----2---------4--|
D|-0-0---0---0-----------------0--|-4-4---4---4-4-------4-------4--|
A|--------------------------------|-2-----------2---------------2--|
E|-3---------3-----------------3--|--------------------------------|

E|--------------------------------|--------------------------------|
B|-------------0-------0-------0--|-------------2-----------2------|
G|-0-0---0---2---------2-------2--|-3-3-3-----4---------4-------4--|
D|-0-0---0---0---------0-------0--|-2------------------------------|
A|--------------------------------|--------------------------------|
E|-3---------3-----------------3--|-2-------2-------2-------2------|

E|--------------------------------|--------------------------------|
B|--------------------------------|--------------------------------|
G|---------4---4---2-----------4--|-----4-------2------------------|
D|-------------4-------4----------|-----4---------------4----------|
A|-2-------0---2---0--------------|-2-------0---2---0--------------|
E|-----2---------------2---0---2--|-----2---------------2---0---2--|

E|--------------------------------|--------------------------------|
B|--------------------------------|-----3-------5-------3---2---0--|
G|-----4---4---4---2--------------|-4------------------------------|
D|---------4-----------4----------|--------------------------------|
A|-2-------0---2---0--------------|-2-------0---2---0--------------|
E|-----2---------------2---0---2--|-----2---------------2---0---2--|

E|--------------------------------|--------------------------------|
B|---------------------0-------0--|-8-7-----7---------0------------|
G|--------------------------------|-------------7---7--------------|
D|--------------------------------|-------------------------5---4--|
A|-7-------5---7---5--------------|-7-------5---7---5--------------|
E|-----7---------------7---5---7--|-----7---------------7---5---7--|

E|--------------------------------|-------------0------------------|
B|--------------------------------|---------3-----------3-------2--|
G|--------------------------------|-----4--------------------------|
D|--------------------------------|--------------------------------|
A|-2-------0---2---0--------------|-2-------0---2---0--------------|
E|-----2---------------2---0---2--|-----2---------------2---0---2--|

E|--------------------------------|--------------------------------|
B|-0-------------------0-------0--|-8-7-------7---------0----------|
G|--------------------------------|-------------7---7--------------|
D|--------------------------------|-------------------------5---4--|
A|-7-------5---7---5--------------|-7-------5---7---5--------------|
E|-----7---------------7---5---7--|-----7---------------7---5---7--|

E|--------------------------------|-------------------------------2|
B|-------------2------------------|-3-----------2------------------|
G|-4------------------------------|-4-----------4------------------|
D|--------------------------------|-4-----------4------------------|
A|-2-------0---2---0--------------|-2-------0---2---0--------------|
E|-----2---------------2---0---2--|-----2---------------2---0---2--|

E|---2-0-----2-------------------2|---2-0-----2--------------------|
B|---------3----------------------|---------3----------------------|
G|--------------------------------|--------------------------------|
D|--------------------------------|--------------------------------|
A|-2-------0---2---0--------------|-2-------0---2---0--------------|
E|-----2---------------2---0---2--|-----2---------------2---0---2--|

E|-2-2-0-------2------------------|-2-----------0------------------|
B|---------3----------------------|---------3-----------3-------2--|
G|--------------------------------|-----4--------------------------|
D|--------------------------------|--------------------------------|
A|-2-------0---2---0--------------|-2-------0---2---0--------------|
E|-----2---------------2---0---2--|-----2---------------2---0---2--|

E|--------------------------------|--------------------------------|
B|-0-------------------0-------0--|-8-7-------7---------0----------|
G|--------------------------------|-------------7---7--------------|
D|--------------------------------|-------------------------5---4--|
A|-7-------5---7---5--------------|-7-------5---7---5--------------|
E|-----7---------------7---5---7--|-----7---------------7---5---7--|

E|--------------------------------|--------------------------------|
B|-------------2------------------|-3-----------2------------------|
G|-4------------------------------|-4-----------4------------------|
D|--------------------------------|-4-----------4------------------|
A|-2-------0---2---0--------------|-2-------0---2---0--------------|
E|-----2---------------2---0---2--|-----2---------------2---0---2--|

E|--------------------------------|--------------------------------|
B|-0-----------2------------------|-3-----------2------------------|
G|-2-----------2------------------|-2-----------2------------------|
D|--------------------------------|-0------------------------------|
A|-2-------0---2---0--------------|-2-------0---2---0--------------|
E|-----2---------------2---0---2--|-----2---------------2---0---2--|

E|--------------------------------|--------------------------------|
B|--------------------------------|--------------------------------|
G|---------4---4---2-----------4--|-----4-------2------------------|
D|-----4---------------4-------4--|-----2-------2-------4----------|
A|-2---------------0--------------|---------------------3----------|
E|-----------------------------4--|-----3-------2------------------|
Suggest correction
comments
print report bad tab
guest
You may want to rate the tab now too:
select rating
Wanna post a correction for this tab? Suggest correction