Oops, an error
Loading. Please wait.

Billie Jean Bass Tab

version 1
version 1

Whole song

Interactive

457,348 views 1,341 this week
5 commentsread comments
1 2 3 4 5
x 35
add to favorites
launch autoscroll
font size
0
reset
guitar tuner
Autoscroll
slow
fast
+/-
esc
set tempo
stop
Help us to improve Ultimate-Guitar.com Take our survey!
×
This is a BASS tab for Michael Jackson's Billy Jean song:

Billy Jean

Bass tab

F# through the verse till D

G|------------------------|
D|--4---2--4---2----------|
A|----4-----------4--2----|
E|------------------------|

on Dm it's

G|-------------------------|
D|----4------4--2--4-------|
A|--2---0-2----------------|
E|-------------------------|

Pre-verse:

People always tell me..

G|-------------------------|
D|-------------------------|
A|--5----------------------|
E|-------------------2-----|

Be careful what you do

G|-------------------------|
D|--4----------------------|
A|-------------------------|
E|------------------2------|

And don't go...

G|-------------------------|
D|-------------------------|
A|--5----------------------|
E|-------------------2-----|

young girls hearts...

G|-------------------------|
D|--4----------------------|
A|-------------------------|
E|------------------2------|

And mother...

G|-------------------------|
D|-------------------------|
A|--5----------------------|
E|-------------------2-----|

be careful who yo love

G|-------------------------|
D|--4----------------------|
A|-------------------------|
E|------------------2------|


and be careful what you do 'cause the

G|-------------------------|
D|-------------------------|
A|--5------------------5-5-|
E|-------------------------|

lie becomes the truth

G|-------------------------|
D|-------------------------|
A|--3-3-3-3-3--------------|
E|-------------------------|

Then it repeats from the top.
Suggest correction
comments
print report bad tab
5 comments total. Showing first comments.
+2 reply
bassbug 10 Oct 29, 2013 11:51 AM

The last phrase sounds closer to C#


g -------------------------
d -------------------------
a --4-4-4-4-4--------------
e -------------------------

0 reply
matttassiello 58 Apr 02, 2014 07:32 PM

very accurate and fun, it's cooler with some variations but i improvise those so it's great

-1 reply
alec.whittier 10 Jul 16, 2014 12:28 PM

Clearly wrong.

guest
You may want to rate the tab now too:
select rating
Wanna post a correction for this tab? Suggest correction