Oops, an error
Loading. Please wait.

Billie Jean Bass Tab

version 2
version 2

Whole song

Interactive

75,579 views 36 this week
2 commentsread comments
1 2 3 4 5
x 19
add to favorites
launch autoscroll
font size
0
reset
guitar tuner
Autoscroll
slow
fast
+/-
esc
set tempo
stop
Help us to improve Ultimate-Guitar.com Take our survey!
×
ARTIST: MICHAEL JACKSON 
ALBUM:  THRILLER '82 
SONG:   BILLIE JEAN 
  

 [RIFF.1] (in F#) 
     O-o-O-o-O-o-O-o 
G|--------------------| 
D|---4---2-4-2--------| 
A|-----4-------4-2-4--| 
E|--------------------| 

 [RIFF.2] (in B) 
     O-o-O-o-O-o-O-o     O-o-O-o-O-o-O-o 
G|---4---2-4----------|--4---2-4----------| 
D|-----4-------4-2-4--|----4-------4-2----| 
A|--------------------|----------------4--| 
E|--------------------|-------------------| 
  
 [RIFF.3  BRIDGE] (in D-F#m-Db) 
     O-o-O-o-O-o-O-o     O-o-O-o-O-o-O-o 
G|--------------------|-------------------| 
D|--------------------|--4-4-4-4-4-4-4-4--| 
A|---5-5-5-5-5-5-5-5--|-------------------| 
E|--------------------|-------------------| 

PLAY IT 3 TIMES BEFORE NEXT RIFF 
  

 [NEXT RIFF]
     O-o-O-o-O-o-O-o     O-o-O-o-O-o-O-o 
G|--------------------|-------------------| 
D|--------------------|--------------0-2--| 
A|---5-5-5-5-5-5-5-5--|--4-4-4-4-4-4------| 
E|--------------------|-------------------| 

 [RIFF.1] (in F#) 
     O-o-O-o-O-o-O-o 
G|--------------------| 
D|---4---2-4-2--------| 
A|-----4-------4-2-4--| 
E|--------------------| 

 [RIFF.2] (in B) 
     O-o-O-o-O-o-O-o     O-o-O-o-O-o-O-o 
G|---4---2-4----------|--4---2-4----------| 
D|-----4-------4-2-4--|----4-------4-2----| 
A|--------------------|----------------4--| 
E|--------------------|-------------------|
Suggest correction
comments
print report bad tab
2 comments total.
+1 reply
fotoface 10 Jul 14, 2006 05:26 AM

Not accurate

+1 reply
woodgerm 10 Jan 08, 2007 01:46 PM

urm ok i suppose needs some work though

guest
You may want to rate the tab now too:
select rating
Wanna post a correction for this tab? Suggest correction