Oops, an error
Loading. Please wait.

Billie Jean Bass Tab

version 4
version 4

Whole song

Interactive

15,147 views 9 this week
no commentswrite comment
1 2 3 4 5
accurate
x 3
add to favorites
launch autoscroll
font size
0
reset
guitar tuner
Autoscroll
slow
fast
+/-
esc
set tempo
stop
Help us to improve Ultimate-Guitar.com Take our survey!
×
Author
due to the other crap attempts of tabbing this song... i decided to take things into my 
hands... its a great song... so heres a great tab!!

intro/main riff
G|---------------------------------|
D|-----2---2-----------2---2-------|
A|---4---4---4-2-4---4---4---4-2-4-|
E|-2---------------2---------------|x8

riff 2
G|-----2-4------------2-4----------|
D|---4------4-2-4---4------4-2-----|
A|-2--------------2------------4---|
E|---------------------------------|

intro/main riff
riff 2
intro/main riff x3
riff 2
intro/main riff

bridge
G|----------------|
D|---------4------|
A|-5--55-5--------|
E|-----------222--|x3

G|------------------|
D|------------------|
A|-5--55-5-44444444-|
E|------------------|


intro/main riff x2
riff 2
intro/main riff
riff 2
intro/main riff x3
riff 2
intro/main riff
riff 2
intro/main riff x3
riff 2
intro/main riff
bridge
intro/main riff x2
riff 2
intro/main riff x3
riff 2
intro/main riff
riff 2
intro/main riff x5
riff 2
intro/main riff x3
riff 2
intro/main riff
riff 2
intro/main riff til fade


enjoy... awesome riff!!
Suggest correction
What's this?
You can suggest a correction to this tab. Community and Mods will review your correction and vote to approve or reject it.
comments
We did not receive enough feedback on this tab! Please rate:
print report bad tab
1 2 3 4 5
guest
You may want to rate the tab now too:
select rating
Please do not post tabs as comments. Select "correction" instead!