Oops, an error
Loading. Please wait.

Billie Jean Bass Tab

version 5
version 5
501,319 views 885 this week
11 commentsread comments
1 2 3 4 5
excellent!
x 85
add to favorites
launch autoscroll
font size
0
reset
guitar tuner
Tab Pro tools
  • play this tab
  • loop segment
  • change instrument
  • show fretboard
  • metronome
×
Best way to learn
"Billie Jean"
Autoscroll
slow
fast
+/-
esc
set tempo
stop
Contributor
Difficulty
novice
----------------------------------------------------------------------------
			     Billie Jean - Michael Jackson
----------------------------------------------------------------------------

Tabbed By : Lee Austin
e-mail: leeaustin1990@hotmail.com

Tuning: Standard (EADG)


    E  E  E  E  E  E  E  E     E  E  E  E  E  E  E  E   
G|--------------------------|--------------------------|
D|--4-----2--4--2-----------|--4-----2--4--2-----------|
A|-----4-----------4--2--4--|-----4-----------4--2--4--|
E|--------------------------|--------------------------| X8

    E  E  E  E  E  E  E  E     E  E  E  E  E  E  E  E   
G|--4-----2--4--------------|--4-----2--4--------------|
D|-----4-----------4--2--4--|-----4-----------4--2--4--|
A|--------------------------|--------------------------|
E|--------------------------|--------------------------|


    E  E  E  E  E  E  E  E     E  E  E  E  E  E  E  E   
G|--------------------------|--------------------------|
D|--4-----2--4--2-----------|--4-----2--4--2-----------|
A|-----4-----------4--2--4--|-----4-----------4--2--4--|
E|--------------------------|--------------------------|


    E  E  E  E  E  E  E  E     E  E  E  E  E  E  E  E   
G|--4-----2--4--------------|--4-----2--4--------------|
D|-----4-----------4--2--4--|-----4-----------4--2--4--|
A|--------------------------|--------------------------|
E|--------------------------|--------------------------|


    E  E  E  E  E  E  E  E     E  E  E  E  E  E  E  E   
G|--------------------------|--------------------------|
D|--4-----2--4--2-----------|--4-----2--4--2-----------|
A|-----4-----------4--2--4--|-----4-----------4--2--4--|
E|--------------------------|--------------------------| x3

    E  E  E  E  E  E  E  E     E  E  E  E  E  E  E  E   
G|--4-----2--4--------------|--4-----2--4--------------|
D|-----4-----------4--2--4--|-----4-----------4--2--4--|
A|--------------------------|--------------------------|
E|--------------------------|--------------------------|

    E  E  E  E  E  E  E  E     Q.     S S Q.     E   
G|--------------------------|-----------------------|
D|--4-----2--4--2-----------|--0------L-0-0------2--|
A|-----4-----------4--2--4--|-----------------------|
E|--------------------------|-----------------------|


    Q.     H        E     Q.     S S Q.     E     Q.     H        E   
G|---------------------|-----------------------|---------------------|
D|--4------------------|--0------L-0-0------2--|--4------------------|
A|------------------4--|-----------------------|------------------4--|
E|---------2-----------|-----------------------|---------2-----------|


    Q.     S S Q.     E     Q.     Q.     E  E   
G|-----------------------|----------------------|
D|--0------L-0-0------2--|--4-------------------|
A|-----------------------|----------------2--4--|
E|-----------------------|---------2------------|


    Q.     S S Q    E  E     E  E  E  E  E  E  E  E   
G|------------------------|--------------------------|
D|--0------L-0-0----0-----|--------------------------|
A|---------------------0--|--4--4--4--4--4--4--4--4--|
E|------------------------|--------------------------|


    E  E  E  E  E  E  E  E     E  E  E  E  E  E  E  E   
G|--------------------------|--------------------------|
D|--4-----2--4--2-----------|--4-----2--4--2-----------|
A|-----4-----------4--2--4--|-----4-----------4--2--4--|
E|--------------------------|--------------------------| x2

    E  E  E  E  E  E  E  E     E  E  E  E  E  E  E  E   
G|--4-----2--4--------------|--4-----2--4--------------|
D|-----4-----------4--2--4--|-----4-----------4--2--4--|
A|--------------------------|--------------------------|
E|--------------------------|--------------------------|


    E  E  E  E  E  E  E  E     E  E  E  E  E  E  E  E   
G|--------------------------|--------------------------|
D|--4-----2--4--2-----------|--4-----2--4--2-----------|
A|-----4-----------4--2--4--|-----4-----------4--2--4--|
E|--------------------------|--------------------------|


    E  E  E  E  E  E  E  E     E  E  E  E  E  E  E  E   
G|--4-----2--4--------------|--4-----2--4--------------|
D|-----4-----------4--2--4--|-----4-----------4--2--4--|
A|--------------------------|--------------------------|
E|--------------------------|--------------------------|


    E  E  E  E  E  E  E  E     E  E  E  E  E  E  E  E   
G|--------------------------|--------------------------|
D|--4-----2--4--2-----------|--4-----2--4--2-----------|
A|-----4-----------4--2--4--|-----4-----------4--2--4--|
E|--------------------------|--------------------------| x3

    E  E  E  E  E  E  E  E     E  E  E  E  E  E  E  E   
G|--4-----2--4--------------|--4-----2--4--------------|
D|-----4-----------4--2--4--|-----4-----------4--2--4--|
A|--------------------------|--------------------------|
E|--------------------------|--------------------------|


    E  E  E  E  E  E  E  E     E  E  E  E  E  E  E  E   
G|--------------------------|--------------------------|
D|--4-----2--4--2-----------|--4-----2--4--2-----------|
A|-----4-----------4--2--4--|-----4-----------4--2--4--|
E|--------------------------|--------------------------|


    E  E  E  E  E  E  E  E     E  E  E  E  E  E  E  E   
G|--4-----2--4--------------|--4-----2--4--------------|
D|-----4-----------4--2--4--|-----4-----------4--2--4--|
A|--------------------------|--------------------------|
E|--------------------------|--------------------------|


    E  E  E  E  E  E  E  E     E  E  E  E  E  E  E  E   
G|--------------------------|--------------------------|
D|--4-----2--4--2-----------|--4-----2--4--2-----------|
A|-----4-----------4--2--4--|-----4-----------4--2--4--|
E|--------------------------|--------------------------| x3

    E  E  E  E  E  E  E  E     E  E  E  E  E  E  E  E   
G|--4-----2--4--------------|--4-----2--4--------------|
D|-----4-----------4--2--4--|-----4-----------4--2--4--|
A|--------------------------|--------------------------|
E|--------------------------|--------------------------|


    E  E  E  E  E  E  E  E     E  E  E  E  E  E  E  E   
G|--------------------------|--------------------------|
D|--4-----2--4--2-----------|--4-----2--4--2-----------|
A|-----4-----------4--2--4--|-----4-----------4--2--4--|
E|--------------------------|--------------------------|


    Q.     S S Q.     E     Q.     H        E     Q.     S S Q.     E   
G|-----------------------|---------------------|-----------------------|
D|--0------L-0-0------2--|--4------------------|--0------L-0-0------2--|
A|-----------------------|------------------4--|-----------------------|
E|-----------------------|---------2-----------|-----------------------|


    Q.     H        E     Q.     S S Q.     E     Q.     Q.     E  E   
G|---------------------|-----------------------|----------------------|
D|--4------------------|--0------L-0-0------2--|--4-------------------|
A|------------------4--|-----------------------|----------------2--4--|
E|---------2-----------|-----------------------|---------2------------|


    Q.     S S Q    E  E     E  E  E  E  E  E  E  E   
G|------------------------|--------------------------|
D|--0------L-0-0----0-----|--------------------------|
A|---------------------0--|--4--4--4--4--4--4--4--4--|
E|------------------------|--------------------------|


    E  E  E  E  E  E  E  E     E  E  E  E  E  E  E  E   
G|--------------------------|--------------------------|
D|--4-----2--4--2-----------|--4-----2--4--2-----------|
A|-----4-----------4--2--4--|-----4-----------4--2--4--|
E|--------------------------|--------------------------| x2

G|--4-----2--4--------------|--4-----2--4--------------|
D|-----4-----------4--2--4--|-----4-----------4--2--4--|
A|--------------------------|--------------------------|
E|--------------------------|--------------------------|

    E  E  E  E  E  E  E  E     E  E  E  E  E  E  E  E   
G|--------------------------|--------------------------|
D|--4-----2--4--2-----------|--4-----2--4--2-----------|
A|-----4-----------4--2--4--|-----4-----------4--2--4--|
E|--------------------------|--------------------------| X3

G|--4-----2--4--------------|--4-----2--4--------------|
D|-----4-----------4--2--4--|-----4-----------4--2--4--|
A|--------------------------|--------------------------|
E|--------------------------|--------------------------|


    E  E  E  E  E  E  E  E     E  E  E  E  E  E  E  E   
G|--------------------------|--------------------------|
D|--4-----2--4--2-----------|--4-----2--4--2-----------|
A|-----4-----------4--2--4--|-----4-----------4--2--4--|
E|--------------------------|--------------------------|


G|--4-----2--4--------------|--4-----2--4--------------|
D|-----4-----------4--2--4--|-----4-----------4--2--4--|
A|--------------------------|--------------------------|
E|--------------------------|--------------------------|


    E  E  E  E  E  E  E  E     E  E  E  E  E  E  E  E   
G|--------------------------|--------------------------|
D|--4-----2--4--2-----------|--4-----2--4--2-----------|
A|-----4-----------4--2--4--|-----4-----------4--2--4--|
E|--------------------------|--------------------------| X5

G|--4-----2--4--------------|--4-----2--4--------------|
D|-----4-----------4--2--4--|-----4-----------4--2--4--|
A|--------------------------|--------------------------|
E|--------------------------|--------------------------|


    E  E  E  E  E  E  E  E     E  E  E  E  E  E  E  E   
G|--------------------------|--------------------------|
D|--4-----2--4--2-----------|--4-----2--4--2-----------|
A|-----4-----------4--2--4--|-----4-----------4--2--4--|
E|--------------------------|--------------------------| X3

G|--4-----2--4--------------|--4-----2--4--------------|
D|-----4-----------4--2--4--|-----4-----------4--2--4--|
A|--------------------------|--------------------------|
E|--------------------------|--------------------------|


    E  E  E  E  E  E  E  E     E  E  E  E  E  E  E  E   
G|--------------------------|--------------------------|
D|--4-----2--4--2-----------|--4-----2--4--2-----------|
A|-----4-----------4--2--4--|-----4-----------4--2--4--|
E|--------------------------|--------------------------|


G|--4-----2--4--------------|--4-----2--4--------------|
D|-----4-----------4--2--4--|-----4-----------4--2--4--|
A|--------------------------|--------------------------|
E|--------------------------|--------------------------|


    E  E  E  E  E  E  E  E     E  E  E  E  E  E  E  E   
G|--------------------------|--------------------------|
D|--4-----2--4--2-----------|--4-----2--4--2-----------|
A|-----4-----------4--2--4--|-----4-----------4--2--4--|
E|--------------------------|--------------------------| X10

Duration Legend
---------------
W - whole
H - half
Q - quarter
E - 8th
S - 16th
T - 32nd
X - 64th
. - note dotted
|-n-|  - n-tuplets


Tablature Legend
----------------
L - tied note
x - dead note
g - grace note
(n) - ghost note
> - accentuded note
NH - natural harmonic
AH - artificial harmonic
TH - tapped harmonic
SH - semi harmonic
PH - pitch harmonic
h - hammer on
p - pull off
b - bend
br - bendRelease
pb - preBend
pbr - preBendRelease
brb - bendReleaseBend
\n/ - tremolo bar dip
\n - tremolo bar dive
-/n - tremolo bar Release up
/n\ - tremolo bar inverted dip
/n - tremolo bar return
-\n - tremolo bar Release down
S - shift slide
s - legato slide
/ -  slide into from below or out of upwards
\ -  slide into from above or out of downwards
~ - vibrato
W - wide vibrato
tr - trill
TP - tremolo picking
T - tapping
S - slap
P - pop
< - fade in
^ - brush up
v - brush down
comments
print report bad tab
11 comments total. Showing first comments.
0 reply
GizmoGurl wrote on July 3 2009, 06:00 am

this is AWESOME . :D

0 reply
detoxicated14 wrote on July 22 2009, 07:26 am

sick :D

0 reply
joeslucky wrote on August 4 2009, 09:30 am

sweet tab!

I want to post or [tab]
guest
You may want to rate the tab now too:
select rating
Please do not post tabs as comments. Select "correction" instead!