Oops, an error
Loading. Please wait.

Black Or White Tab

version 1
version 1

Whole song

Interactive

224,822 views 57 this week
14 commentsread comments
1 2 3 4 5
x 21
add to favorites
launch autoscroll
font size
0
reset
how to read this tab
guitar tuner
×
Best way to learn
"Black Or White"
Autoscroll
slow
fast
+/-
esc
set tempo
stop
Michael Jackson, Blacl or white.
 Tabbed by Lloyd, Lloyd121loverboy@aol.com.
  
e|-3-3-3-3-3-----------------------|
B|-3-3-3-3-3-----------------------|
G|-2-2-2-2-2-----------------------|x5(5 times)
D|---------------------------------|
A|---------------------------------|
E|---------------------------------|

e|---2----------------2------------|
B|--3-------3-3-3----3-------------|
G|--2-------2-2-2----2-------------|
D|---------------------------------|
A|---------------------------------|
E|---------------------------------|

    Do this twice then follow it on to this
e|--2-2-2---------------------------|
B|-3-3-3------2---------------------|
G|-2-2-2------2-------x15 do it fast|
D|------------2---------------------|
A|----------------------------------|
E|----------------------------------|

e|----3-------------------------|
B|------------------------------|
G|------------------------------|Do this seven times its Gchord
D|------------------------------|
A|----2-------------------------|
E|----3-------------------------|
Suggest correction
comments
print report bad tab
14 comments total. Showing first comments.
-1 reply
Nz_chic_rock 10 Feb 20, 2002 07:00 PM

wkd!!i cant stop playin dis tune! luv it.pem

-1 reply
motley's crew01 10 Jul 26, 2006 09:49 AM

ausome song, good tab

0 reply
homerm06 186 Nov 11, 2006 06:34 AM

the intro is off. this is the way i hear it.

|-3-3-3-2--0-0-2---|
|-3-3-3-3--3-3-3---|
|-2-2-2-2--2-2-2---|
|------------------|
|------------------|
|------------------|

other than that it's good i guess

guest
You may want to rate the tab now too:
select rating
Wanna post a correction for this tab? Suggest correction