Oops, an error
Loading. Please wait.

Come Together Tab

version 1
version 1

Whole song

Interactive

34,184 views 30 this week
no commentswrite comment
1 2 3 4 5
excellent!
x 10
add to favorites
launch autoscroll
font size
0
reset
how to read this tab
guitar tuner
Autoscroll
slow
fast
+/-
esc
set tempo
stop
Help us to improve Ultimate-Guitar.com Take our survey!
×
Michael Jackson 
Come Together (Beatles Cover)
Transcribed by Soch H.
Tuning: Standard

Intro:
|---------------------|
|---------------------|
|---------------------|
|-----------5---------|
|---------------7\----|
|-0--0--5s7-----------|(x8)

|---------------------|
|---------------------|
|---------------------|
|---------------------|
|-----------5---------|
|-7--7--5h7-----7\----|(x2)

E
Here come ol' flat top
He come groovin' up slowly
He's got Joo Joo eyeball
He one holy roller
        B  
He got hair down to his knees
A
Got to be a joker he just do what he please

|--------|
|--------|
|-9--9---|
|-9--9---|
|-7--7---|
|--------|(repeat)

E
He wear no shoe shine
He's got toe jam football
He's got monkey finger
He shoot Coca-Cola
         B
He say "I know you, you know me"
A
One thing I can tell you is you got to be free

Come together
Right now
Over me
|------------------------------------------|
|------------------------------------------|
|-6-6-6-6-6-6-6--4--2-2-2-2--4-------------|
|-6-6-6-6-6-6-6--4--2-2-2-2--4-------------|
|-4-4-4-4-4-4-4--2--0-0-0-0--2-------------|
|------------------------------------------|

E
He bag production
He's got walrus gum-boot
He's got Ono sideboard
He one spinal cracker
         B
He got feet down through his knees
A
Hold you in his armchair
You can feel his disease

Come together
Right now
Over me
Come together babe
Come together babe
Come together
Come together

Guitar Solo/Interlude:(1:53)
|---------------------------------------------|
|-12-12--12-x-12------------------------------|
|-12-12--12-x-12------------------------------|
|----------------14-12-14---------------------|
|---------------------------------------------|
|---------------------------------------------|(x3)

|---------------------------------------------|
|-12-12--12-x-12------------------------------|
|-12-12--12-x-12------------------------------|
|----------------14-12------------------------|
|---------------------------------------------|
|---------------------------------------------|

|-----------------------------------------|
|-10h12~--12-12-10----10h12~--------------|
|------------------12---------------------|
|-----------------------------------------|
|-----------------------------------------|
|-----------------------------------------|(x2)

|-------------10h12~--------------|
|-12-12-10------------------------|
|----------12---------------------|
|---------------------------------|
|---------------------------------|
|---------------------------------|

E
He roller coaster
He's got early warning
He's got muddy water
He one Mojo filter
         B
He say "One and one and one is three"
A
Got to be good looking 'cause he's so hard to see

Come together
Right now
Over me

Guitar Outro:
|---------------------------------------------|
|-12-12--12-x-12------------------------------|
|-12-12--12-x-12------------------------------|
|----------------14-12-14---------------------|
|---------------------------------------------|
|---------------------------------------------|
(Repeat till fade out)

Chords:
E:  022100
B:  x2444x
A:  x02220
Suggest correction
comments
print report bad tab
guest
You may want to rate the tab now too:
select rating
Please do not post tabs as comments. Select "correction" instead!