Oops, an error
Loading. Please wait.

Dirty Diana Tab

version 2
version 2

Whole song

  • This version is tabbed for Drop D tuning without t... Show more

Interactive

45,387 views 81 this week
2 commentsread comments
1 2 3 4 5
accurate
x 4
add to favorites
launch autoscroll
font size
0
reset
how to read this tab
guitar tuner
Autoscroll
slow
fast
+/-
esc
set tempo
stop
Help us to improve Ultimate-Guitar.com Take our survey!
×
Author
Difficulty
Capo
advanced
3rd fret
Listen to song for rhythm and timing
**Capo 3rd fret**
Intro:
E:---------------|---3--------|--2------------||
B:---------------|---3--------|--3------------||
G:---------------|---0--------|--2------------|| Repeat as necessary
D:–-3------------|---2--------|-0-------------||
A:–-2--2-0-2-----|-3----------|---------------||
E:–0-------------|------------|---------------||

Verse 1:
E:---------------|---3--------|--2------------||
B:---------------|---3--------|--3------------||
G:---------------|---0--------|--2------------|| Repeat throughout verse
D:–-3------------|---2--------|-0-------------||
A:–-2--2-0-2-----|-3----------|---------------||
E:–0-------------|------------|---------------||
You’ll never make me stay, so take your weight offa me.
I know your every move, so won’t you jus’ let me be.
I've been here times before, but I was too blind t’see,
That you se-duce every man. This time you won't se-duce me.
She’s sayin’, “That’s ok. Hey baby do what you please.
I have the stuff that you want, I am the thing that you need.”
She looked me deep in the eyes, she’s touchin’ me so to start.
She says “There’s no turnin’ back.” she trapped me in ‘er heart.


Chorus Tab:
Dirty Diana! No . . .
E:-----|-----------------||
B:-----|-----------------||
G:-----|-----------------||
D:-----|---------5-2-----||
A:–0h2-|-5-2-5-2---------||
E:-----|-----------------||

Dirty Diana! No . . .
E:-----|-----------------||
B:-----|-----------------||
G:-----|-----------------||
D:-----|---------5-2-----||
A:–0h2-|-5-2-5-2---------||
E:-----|-----------------||

Dirty Di--ana! No . . .
E:-----|-----x-----------||
B:-----|-----x-----------||
G:-----|-----x-----------||
D:-----|-----x---5-2-----||
A:–0h2-|-5-2-x-----------||
E:-----|-----x-----------||

Dirty Diana!
E:-----|-----------------||
B:-----|-----------------||
G:-----|-----------------||
D:-----|---------5-2-----||
A:–0h2-|-5-2-5-2---------||
E:-----|-----------------||

C        D
Lemme be!

(Repeat the Intro/verse tab throughout the “Oh No”’s)
Oh no...
Oh no...
Oh no...


Verse 2:
E:---------------|---3--------|--2------------||
B:---------------|---3--------|--3------------||
G:---------------|---0--------|--2------------|| Repeat throughout verse
D:–-3------------|---2--------|-0-------------||
A:–-2--2-0-2-----|-3----------|---------------||
E:–0-------------|------------|---------------||
She likes the boys in the band, she knows when they come to town.
Every musician’s fan after the curtain comes down.
She waits at backstage doors for those who have prestige,
Who promise fortune and fame, a life that's so carefree.
She’s sayin’, “That’s ok. Hey baby do what you want.
I’ll be your night lovin’ thang. I’ll be the freak you can taunt.
An’ I don't care what you say, I wanna go too far.
I’ll be your everything if you make me a star.”

Repeat Chorus tab 2x (excluding the ‘Lemme be’ part)

(Below, you can either chose to play the chorus tab, or you can play the Intro/Verse 
They both work.)
Diana!
Diana!
Dirty Diana!
It’s Dia...ana...ana
Come on!

Verse 3:

E:---------------|---3--------|--2------------||
B:---------------|---3--------|--3------------||
G:---------------|---0--------|--2------------|| Repeat throughout verse
D:–-3------------|---2--------|-0-------------||
A:–-2--2-0-2-----|-3----------|---------------||
E:–0-------------|------------|---------------||
She said, “I hafta go home ‘cause I’m real tired, you see.
But I hate sleepin’ alone, why don't you come with me?”
I said, “My baby’s at home, she's prob’ly worried tonight.
I didn’ call on the phone to say that I’m alright.”
Diana walked up to me, she said, “I’m all yours tonight.”
At that I ran to the phone sayin’, “Baby I’m alright.”
I said, “But unlock the door, ‘cause I forgot the key.”
She said “He’s not comin’ back, because he’s sleepin’ with me.”


Repeat Chorus tab 2x (excluding the ‘Lemme be’ part)
Come on! (Repeat line until fade)
Suggest correction
comments
print report bad tab
2 comments total.
0 reply
jonahrocks1 10 wrote on July 8 2009, 11:11 pm

I'm pretty sure i heard a solo on this song.......

+1 reply
GodFather090807 62 wrote on January 28 2010, 06:31 pm

its
E:-----|-----------------||
B:-----|-----------------||
G:-----|---------3-------||
D:---3-|--3----3---5-----||
A:–5---|-5---5-----------||
E:-----|-----------------||

guest
You may want to rate the tab now too:
select rating
Wanna post a correction for this tab? Suggest correction