Oops, an error
Loading. Please wait.

Dont Stop Till You Get Enough Bass Tab

version 1
version 1

Whole song

Interactive

30,362 views 24 this week
5 commentsread comments
1 2 3 4 5
x 16
add to favorites
launch autoscroll
font size
0
reset
guitar tuner
Autoscroll
slow
fast
+/-
esc
set tempo
stop
Help us to improve Ultimate-Guitar.com Take our survey!
×
Author
Difficulty
Don't Stop Til You Get Enough - Michael Jackson
Tabbed By : Superkisseler
Tuning:Standard

[Intro] into every verse:
G|---------------------------------|
D|---------------------------------|
A|-0-0-----------------------------|
E|---------------------------------|

It's Basically this the entire song:
G|-----------------------------------------------------------------------------|
D|-----------------------------------------------------------------------------|
A|-0--4-4---x4h5---------------------------------------------------------------|
E|-----------------------------------------------------------------------------|

And there is one [interlude]
G|---------------------------------|
D|---------------------------------|       X3
A|-7-7-6---5-5-4---3-3-2--1-1-1----|
E|---------------------------------|

G|---------------------------------|
D|---------------------------------|       X1
A|-7-7-6---5-5-4---3-3-2-----------|
E|---------------------------------|

Then Right back into it. One of Michael's first big hits and a great song. Enjoy!

************************************

| x  Dead note
| h  Hammer-on

************************************
Suggest correction
comments
print report bad tab
5 comments total. Showing first comments.
+1 reply
ridelightning95 81 Jun 16, 2014 01:25 PM

Clearly wrong.

+1 reply
InfinitiMusic11 46 Sep 30, 2014 06:48 PM

Terrible XD

0 reply
mckayniac 31 Jun 17, 2015 08:04 PM

Lack of accuracy. Clearly wrong. this tab is wrong and should be corrected
this tab is wrong and should be corrected
this tab is wrong and should be corrected

guest
You may want to rate the tab now too:
select rating
Wanna post a correction for this tab? Suggest correction