Oops, an error
Loading. Please wait.

Get On The Floor Bass Tab

version 2
version 2

Whole song

Interactive

27,912 views 69 this week
no commentswrite comment
1 2 3 4 5
accurate
x 11
add to favorites
launch autoscroll
font size
0
reset
guitar tuner
Tab Pro tools
  • play this tab
  • loop segment
  • change instrument
  • show fretboard
  • metronome
Autoscroll
slow
fast
+/-
esc
set tempo
stop
Contributor
Difficulty
intermediate
Song: Get On The Floor
Artist: Michael Jackson 
Album: Off The Wall
Bass Player: Louis Johnson

        
G|----------------------------------------|___________
D|----------3-3-3-3--3h5--------------X---|           |
A|------3h5--------------3-3-3-2-1--------|           |
E|--3s1-----------------------------X---1-|           |
                                                      |       Verse
                                                      |- (Repeat 4 Times)
G|-------------------------------------3--|           |
D|----------3-3-3-3--3h5-----------3h5----|           |
A|------3h5--------------3-3-3-2-1--------|           |
E|--3s1-----------------------------------|___________|

  
G|--3p0-----------------3---3---5---5----|
D|----------5----------------------------|_________
A|------5-------------1---1---3---3------|_________|- Chorus (Repeat 8 Times) 
E|--------3---1-3-1-1--------------------|

Listen to song for the rhythm.


ORDER OF SONG

VERSE
CHORUS
VERSE
CHORUS
VERSE
CHORUS (Only repeat 2 times, instead of 4)
BRIDGE (No Bass)
VERSE
CHORUS
comments
print report bad tab
I want to post or [tab]
guest
You may want to rate the tab now too:
select rating
Please do not post tabs as comments. Select "correction" instead!