Oops, an error
Loading. Please wait.

Get On The Floor Bass

version 2
version 2

Whole song

Interactive

33,773 views 48 this week
no commentswrite comment
1 2 3 4 5
x 14
add to favorites
launch autoscroll
font size
0
reset
guitar tuner
Autoscroll
slow
fast
+/-
esc
set tempo
stop
Author
Difficulty
intermediate
[Verse]       
G|----------------------------------------|
D|----------3-3-3-3--3h5--------------x---|
A|------3h5--------------3-3-3-2-1--------|
E|--3s1-----------------------------x---1-|     
                                            (x4) 
G|-------------------------------------3--|
D|----------3-3-3-3--3h5-----------3h5----|
A|------3h5--------------3-3-3-2-1--------|
E|--3s1-----------------------------------|

[Chorus]
G|--3p0-----------------3---3---5---5----|
D|----------5----------------------------|
A|------5-------------1---1---3---3------| (x8)
E|--------3---1-3-1-1--------------------|

[Verse]      
G|---------------------------------------|
D|----------3-3-3-3--3h5--------------x---|
A|------3h5--------------3-3-3-2-1--------|
E|--3s1-----------------------------x---1-|     
                                            (x4) 
G|-------------------------------------3--|
D|----------3-3-3-3--3h5-----------3h5----|
A|------3h5--------------3-3-3-2-1--------|
E|--3s1-----------------------------------|

[Chorus]
G|--3p0-----------------3---3---5---5----|
D|----------5----------------------------|
A|------5-------------1---1---3---3------| (x8)
E|--------3---1-3-1-1--------------------|

[Verse] 
G|----------------------------------------|
D|----------3-3-3-3--3h5--------------x---|
A|------3h5--------------3-3-3-2-1--------|
E|--3s1-----------------------------x---1-|     
                                            (x4) 
G|-------------------------------------3--|
D|----------3-3-3-3--3h5-----------3h5----|
A|------3h5--------------3-3-3-2-1--------|
E|--3s1-----------------------------------|

[Chorus]
G|--3p0-----------------3---3---5---5----|
D|----------5----------------------------|
A|------5-------------1---1---3---3------| (x4)
E|--------3---1-3-1-1--------------------|

[Bridge]
(No Bass)

[Verse]     
G|----------------------------------------|
D|----------3-3-3-3--3h5--------------x---|
A|------3h5--------------3-3-3-2-1--------|
E|--3s1-----------------------------x---1-|     
                                            (x4) 
G|-------------------------------------3--|
D|----------3-3-3-3--3h5-----------3h5----|
A|------3h5--------------3-3-3-2-1--------|
E|--3s1-----------------------------------|

[Chorus]
G|--3p0-----------------3---3---5---5----|
D|----------5----------------------------|
A|------5-------------1---1---3---3------| (x8)
E|--------3---1-3-1-1--------------------|


************************************

| x  Dead note
| h  Hammer-on
| p  Pull-off

************************************
Suggest correction
comments
print report bad tab
guest
You may want to rate the tab now too:
select rating
Wanna post a correction for this tab? Suggest correction