Oops, an error
Loading. Please wait.

Get On The Floor Bass Tab

version 3
version 3

Whole song

Interactive

3,257 views 1 this week
no commentswrite comment
1 2 3 4 5
please rate
add to favorites
launch autoscroll
font size
0
reset
guitar tuner
Autoscroll
slow
fast
+/-
esc
set tempo
stop
Help us to improve Ultimate-Guitar.com Take our survey!
×
Author
-------------------------------------------------------------------------------
			     Get On The Floor - Michael Jackson
-------------------------------------------------------------------------------

Tabbed By : XNem07
e-mail: 

Tuning: Standard

G|---5--7------------------------------------------------------3------------|
D|---3--5-----3-3-3-3h5------------------3-3-3-3h5--------3h5p3-------------|
A|--------3h5-----------3x321--------3h5-----------3x321--------------------|
E|-----------------------------1-3---------------------------------3--------|
Repeat until next part:

G|------x--------------3---3---5---5----------------------------------------|
D|--------------------------------------------------------------------------|
A|-------------------1---1---3---3------------------------------------------|
E|-1h3p1----3-1-1-1---------------------------------------------------------|

That's pretty much it. Enjoy.

| /  slide up
| \  slide down
| h  hammer-on
| p  pull-off
| ~  vibrato
| +  harmonic
| x  Mute note
===============================================================================
Suggest correction
Give kudos to tab author, rate the tab!
1 2 3 4 5
comments
print report bad tab
guest
You may want to rate the tab now too:
select rating
Please do not post tabs as comments. Select "correction" instead!